  0
SECTION
  2
HEADER
  9
$ACADVER
  1
AC1009
  9
$INSBASE
 10
0.0
 20
0.0
 30
0.0
  9
$EXTMIN
 10
-50.591
 20
-3.252001
 30
0.0
  9
$EXTMAX
 10
-45.382
 20
2.947001
 30
4.0
  9
$LIMMIN
 10
0.0
 20
0.0
  9
$LIMMAX
 10
300.0
 20
225.0
  9
$ORTHOMODE
 70
     0
  9
$REGENMODE
 70
     1
  9
$FILLMODE
 70
     1
  9
$QTEXTMODE
 70
     0
  9
$MIRRTEXT
 70
     1
  9
$DRAGMODE
 70
     2
  9
$LTSCALE
 40
1.0
  9
$OSMODE
 70
     0
  9
$ATTMODE
 70
     1
  9
$TEXTSIZE
 40
0.2
  9
$TRACEWID
 40
0.05
  9
$TEXTSTYLE
  7
STANDARD
  9
$CLAYER
  8
0
  9
$CELTYPE
  6
BYLAYER
  9
$CECOLOR
 62
   256
  9
$DIMSCALE
 40
1.0
  9
$DIMASZ
 40
0.18
  9
$DIMEXO
 40
0.0625
  9
$DIMDLI
 40
0.38
  9
$DIMRND
 40
0.0
  9
$DIMDLE
 40
0.0
  9
$DIMEXE
 40
0.18
  9
$DIMTP
 40
0.0
  9
$DIMTM
 40
0.0
  9
$DIMTXT
 40
0.18
  9
$DIMCEN
 40
0.09
  9
$DIMTSZ
 40
0.0
  9
$DIMTOL
 70
     0
  9
$DIMLIM
 70
     0
  9
$DIMTIH
 70
     1
  9
$DIMTOH
 70
     1
  9
$DIMSE1
 70
     0
  9
$DIMSE2
 70
     0
  9
$DIMTAD
 70
     0
  9
$DIMZIN
 70
     0
  9
$DIMBLK
  1

  9
$DIMASO
 70
     1
  9
$DIMSHO
 70
     0
  9
$DIMPOST
  1

  9
$DIMAPOST
  1

  9
$DIMALT
 70
     0
  9
$DIMALTD
 70
     2
  9
$DIMALTF
 40
25.4
  9
$DIMLFAC
 40
1.0
  9
$DIMTOFL
 70
     0
  9
$DIMTVP
 40
0.0
  9
$DIMTIX
 70
     0
  9
$DIMSOXD
 70
     0
  9
$DIMSAH
 70
     0
  9
$DIMBLK1
  1

  9
$DIMBLK2
  1

  9
$DIMSTYLE
  2
*UNNAMED
  9
$DIMCLRD
 70
     0
  9
$DIMCLRE
 70
     0
  9
$DIMCLRT
 70
     0
  9
$DIMTFAC
 40
1.0
  9
$DIMGAP
 40
0.09
  9
$LUNITS
 70
     2
  9
$LUPREC
 70
     4
  9
$AXISMODE
 70
     0
  9
$AXISUNIT
 10
0.0
 20
0.0
  9
$SKETCHINC
 40
0.1
  9
$FILLETRAD
 40
0.0
  9
$AUNITS
 70
     0
  9
$AUPREC
 70
     0
  9
$MENU
  1
ACAD
  9
$ELEVATION
 40
0.0
  9
$PELEVATION
 40
0.0
  9
$THICKNESS
 40
0.0
  9
$LIMCHECK
 70
     0
  9
$BLIPMODE
 70
     1
  9
$CHAMFERA
 40
0.0
  9
$CHAMFERB
 40
0.0
  9
$SKPOLY
 70
     0
  9
$TDCREATE
 40
2447732.651236388
  9
$TDUPDATE
 40
2449108.716237268
  9
$TDINDWG
 40
0.0017037037
  9
$TDUSRTIMER
 40
0.0017037037
  9
$USRTIMER
 70
     1
  9
$ANGBASE
 50
0.0
  9
$ANGDIR
 70
     0
  9
$PDMODE
 70
     0
  9
$PDSIZE
 40
0.0
  9
$PLINEWID
 40
0.0
  9
$COORDS
 70
     0
  9
$SPLFRAME
 70
     0
  9
$SPLINETYPE
 70
     6
  9
$SPLINESEGS
 70
     8
  9
$ATTDIA
 70
     0
  9
$ATTREQ
 70
     1
  9
$HANDLING
 70
     1
  9
$HANDSEED
  5
945
  9
$SURFTAB1
 70
     6
  9
$SURFTAB2
 70
     6
  9
$SURFTYPE
 70
     6
  9
$SURFU
 70
     6
  9
$SURFV
 70
     6
  9
$UCSNAME
  2

  9
$UCSORG
 10
0.0
 20
0.0
 30
0.0
  9
$UCSXDIR
 10
1.0
 20
0.0
 30
0.0
  9
$UCSYDIR
 10
0.0
 20
1.0
 30
0.0
  9
$PUCSNAME
  2

  9
$PUCSORG
 10
0.0
 20
0.0
 30
0.0
  9
$PUCSXDIR
 10
1.0
 20
0.0
 30
0.0
  9
$PUCSYDIR
 10
0.0
 20
1.0
 30
0.0
  9
$USERI1
 70
     0
  9
$USERI2
 70
     0
  9
$USERI3
 70
     0
  9
$USERI4
 70
     0
  9
$USERI5
 70
     0
  9
$USERR1
 40
0.0
  9
$USERR2
 40
0.0
  9
$USERR3
 40
0.0
  9
$USERR4
 40
0.0
  9
$USERR5
 40
0.0
  9
$WORLDVIEW
 70
     1
  9
$SHADEDGE
 70
     3
  9
$SHADEDIF
 70
    70
  9
$TILEMODE
 70
     1
  9
$MAXACTVP
 70
    16
  9
$PINSBASE
 10
0.0
 20
0.0
 30
0.0
  9
$PLIMCHECK
 70
     0
  9
$PEXTMIN
 10
1.000000E+20
 20
1.000000E+20
 30
1.000000E+20
  9
$PEXTMAX
 10
-1.000000E+20
 20
-1.000000E+20
 30
-1.000000E+20
  9
$PLIMMIN
 10
0.0
 20
0.0
  9
$PLIMMAX
 10
12.0
 20
9.0
  9
$UNITMODE
 70
     0
  9
$VISRETAIN
 70
     0
  0
ENDSEC
  0
SECTION
  2
TABLES
  0
TABLE
  2
VPORT
 70
     2
  0
VPORT
  2
*ACTIVE
 70
     0
 10
0.0
 20
0.0
 11
1.0
 21
1.0
 12
-34.942207
 22
-26.429145
 13
0.0
 23
0.0
 14
1.0
 24
1.0
 15
0.0
 25
0.0
 16
-1.146988
 26
-1.416867
 36
3.777064
 17
0.0
 27
0.0
 37
0.0
 40
9.029526
 41
1.380723
 42
50.0
 43
0.0
 44
0.0
 50
0.0
 51
0.0
 71
     0
 72
   100
 73
     1
 74
     1
 75
     0
 76
     0
 77
     0
 78
     0
  0
ENDTAB
  0
TABLE
  2
LTYPE
 70
     1
  0
LTYPE
  2
CONTINUOUS
 70
    64
  3
Solid line
 72
    65
 73
     0
 40
0.0
  0
ENDTAB
  0
TABLE
  2
LAYER
 70
    10
  0
LAYER
  2
0
 70
     0
 62
     7
  6
CONTINUOUS
  0
LAYER
  2
1
 70
     0
 62
     1
  6
CONTINUOUS
  0
LAYER
  2
2
 70
     0
 62
     2
  6
CONTINUOUS
  0
LAYER
  2
3
 70
     0
 62
     3
  6
CONTINUOUS
  0
LAYER
  2
4
 70
     0
 62
     4
  6
CONTINUOUS
  0
LAYER
  2
5
 70
     0
 62
     5
  6
CONTINUOUS
  0
LAYER
  2
6
 70
     0
 62
     6
  6
CONTINUOUS
  0
LAYER
  2
7
 70
     0
 62
     7
  6
CONTINUOUS
  0
LAYER
  2
8
 70
     0
 62
     7
  6
CONTINUOUS
  0
LAYER
  2
AME_FRZ
 70
    65
 62
     7
  6
CONTINUOUS
  0
ENDTAB
  0
TABLE
  2
STYLE
 70
     5
  0
STYLE
  2
STANDARD
 70
     0
 40
0.0
 41
1.0
 50
0.0
 71
     0
 42
0.2
  3
TXT
  4

  0
STYLE
  2
GREEK
 70
     0
 40
0.0
 41
1.0
 50
0.0
 71
     0
 42
0.2
  3
GREEKC
  4

  0
STYLE
  2
ITALICC
 70
     0
 40
0.0
 41
1.0
 50
0.0
 71
     0
 42
0.2
  3
ITALICC
  4

  0
STYLE
  2
MONOTXT
 70
     0
 40
0.0
 41
1.0
 50
0.0
 71
     0
 42
0.2
  3
MONOTXT
  4

  0
STYLE
  2
GOTHICE
 70
     0
 40
0.0
 41
1.0
 50
0.0
 71
     0
 42
0.2
  3
GOTHICE
  4

  0
ENDTAB
  0
TABLE
  2
VIEW
 70
     0
  0
ENDTAB
  0
TABLE
  2
UCS
 70
     0
  0
ENDTAB
  0
TABLE
  2
APPID
 70
     2
  0
APPID
  2
ACAD
 70
    64
  0
APPID
  2
AME_SOL
 70
     0
  0
ENDTAB
  0
TABLE
  2
DIMSTYLE
 70
     0
  0
ENDTAB
  0
ENDSEC
  0
SECTION
  2
BLOCKS
  0
BLOCK
  8
0
  5
C9
  2
AME_NIL
 70
    64
 10
0.0
 20
0.0
 30
0.0
  1
AME_NIL
  0
ENDBLK
  8
0
  5
CA
  0
BLOCK
  8
0
  5
CC
  2
AME_SOL
 70
    64
 10
0.0
 20
0.0
 30
0.0
  1
AME_SOL
  0
ENDBLK
  8
0
  5
CD
  0
BLOCK
  8
0
  5
CF
  2
*U2
 70
    65
 10
0.0
 20
0.0
 30
0.0
  1
*U
  0
LINE
  8
0
 62
     0
  5
D0
 10
0.0
 20
0.0
 30
0.0
 11
0.0
 21
0.0
 31
4.0
1001
AME_SOL
1070
     1
1071
      190
  0
LINE
  8
0
 62
     0
  5
D1
 10
2.286999
 20
0.0
 30
0.0
 11
2.286999
 21
0.0
 31
4.0
1001
AME_SOL
1070
     1
1071
      189
  0
LINE
  8
0
 62
     0
  5
D2
 10
2.439999
 20
0.025
 30
0.0
 11
2.439999
 21
0.025
 31
4.0
1001
AME_SOL
1070
     1
1071
      188
  0
LINE
  8
0
 62
     0
  5
D3
 10
2.591999
 20
0.051
 30
0.0
 11
2.591999
 21
0.051
 31
4.0
1001
AME_SOL
1070
     1
1071
      187
  0
LINE
  8
0
 62
     0
  5
D4
 10
2.743999
 20
0.076
 30
0.0
 11
2.743999
 21
0.076
 31
4.0
1001
AME_SOL
1070
     1
1071
      186
  0
LINE
  8
0
 62
     0
  5
D5
 10
2.896999
 20
0.102
 30
0.0
 11
2.896999
 21
0.102
 31
4.0
1001
AME_SOL
1070
     1
1071
      185
  0
LINE
  8
0
 62
     0
  5
D6
 10
3.023998
 20
0.152
 30
0.0
 11
3.023998
 21
0.152
 31
4.0
1001
AME_SOL
1070
     1
1071
      184
  0
LINE
  8
0
 62
     0
  5
D7
 10
3.175999
 20
0.203
 30
0.0
 11
3.175999
 21
0.203
 31
4.0
1001
AME_SOL
1070
     1
1071
      183
  0
LINE
  8
0
 62
     0
  5
D8
 10
3.328998
 20
0.254
 30
0.0
 11
3.328998
 21
0.254
 31
4.0
1001
AME_SOL
1070
     1
1071
      182
  0
LINE
  8
0
 62
     0
  5
D9
 10
3.456001
 20
0.305
 30
0.0
 11
3.456001
 21
0.305
 31
4.0
1001
AME_SOL
1070
     1
1071
      181
  0
LINE
  8
0
 62
     0
  5
DA
 10
3.583
 20
0.381
 30
0.0
 11
3.583
 21
0.381
 31
4.0
1001
AME_SOL
1070
     1
1071
      180
  0
LINE
  8
0
 62
     0
  5
DB
 10
3.735001
 20
0.457
 30
0.0
 11
3.735001
 21
0.457
 31
4.0
1001
AME_SOL
1070
     1
1071
      179
  0
LINE
  8
0
 62
     0
  5
DC
 10
3.862999
 20
0.534
 30
0.0
 11
3.862999
 21
0.534
 31
4.0
1001
AME_SOL
1070
     1
1071
      178
  0
LINE
  8
0
 62
     0
  5
DD
 10
3.989998
 20
0.61
 30
0.0
 11
3.989998
 21
0.61
 31
4.0
1001
AME_SOL
1070
     1
1071
      177
  0
LINE
  8
0
 62
     0
  5
DE
 10
4.091
 20
0.712
 30
0.0
 11
4.091
 21
0.712
 31
4.0
1001
AME_SOL
1070
     1
1071
      176
  0
LINE
  8
0
 62
     0
  5
DF
 10
4.217999
 20
0.813
 30
0.0
 11
4.217999
 21
0.813
 31
4.0
1001
AME_SOL
1070
     1
1071
      175
  0
LINE
  8
0
 62
     0
  5
E0
 10
4.422001
 20
1.016
 30
0.0
 11
4.422001
 21
1.016
 31
4.0
1001
AME_SOL
1070
     1
1071
      174
  0
LINE
  8
0
 62
     0
  5
E1
 10
4.625
 20
1.245
 30
0.0
 11
4.625
 21
1.245
 31
4.0
1001
AME_SOL
1070
     1
1071
      173
  0
LINE
  8
0
 62
     0
  5
E2
 10
4.777
 20
1.499
 30
0.0
 11
4.777
 21
1.499
 31
4.0
1001
AME_SOL
1070
     1
1071
      172
  0
LINE
  8
0
 62
     0
  5
E3
 10
4.93
 20
1.779
 30
0.0
 11
4.93
 21
1.779
 31
4.0
1001
AME_SOL
1070
     1
1071
      171
  0
LINE
  8
0
 62
     0
  5
E4
 10
5.056999
 20
2.058
 30
0.0
 11
5.056999
 21
2.058
 31
4.0
1001
AME_SOL
1070
     1
1071
      170
  0
LINE
  8
0
 62
     0
  5
E5
 10
5.132999
 20
2.363
 30
0.0
 11
5.132999
 21
2.363
 31
4.0
1001
AME_SOL
1070
     1
1071
      169
  0
LINE
  8
0
 62
     0
  5
E6
 10
5.183998
 20
2.693
 30
0.0
 11
5.183998
 21
2.693
 31
4.0
1001
AME_SOL
1070
     1
1071
      168
  0
LINE
  8
0
 62
     0
  5
E7
 10
5.209
 20
3.024
 30
0.0
 11
5.209
 21
3.024
 31
4.0
1001
AME_SOL
1070
     1
1071
      167
  0
LINE
  8
0
 62
     0
  5
E8
 10
5.183998
 20
3.353
 30
0.0
 11
5.183998
 21
3.353
 31
4.0
1001
AME_SOL
1070
     1
1071
      166
  0
LINE
  8
0
 62
     0
  5
E9
 10
5.158001
 20
3.658
 30
0.0
 11
5.158001
 21
3.658
 31
4.0
1001
AME_SOL
1070
     1
1071
      165
  0
LINE
  8
0
 62
     0
  5
EA
 10
5.082001
 20
3.963
 30
0.0
 11
5.082001
 21
3.963
 31
4.0
1001
AME_SOL
1070
     1
1071
      164
  0
LINE
  8
0
 62
     0
  5
EB
 10
4.980999
 20
4.268
 30
0.0
 11
4.980999
 21
4.268
 31
4.0
1001
AME_SOL
1070
     1
1071
      163
  0
LINE
  8
0
 62
     0
  5
EC
 10
4.854
 20
4.547
 30
0.0
 11
4.854
 21
4.547
 31
4.0
1001
AME_SOL
1070
     1
1071
      162
  0
LINE
  8
0
 62
     0
  5
ED
 10
4.701
 20
4.802
 30
0.0
 11
4.701
 21
4.802
 31
4.0
1001
AME_SOL
1070
     1
1071
      161
  0
LINE
  8
0
 62
     0
  5
EE
 10
4.522999
 20
5.03
 30
0.0
 11
4.522999
 21
5.03
 31
4.0
1001
AME_SOL
1070
     1
1071
      160
  0
LINE
  8
0
 62
     0
  5
EF
 10
4.32
 20
5.259
 30
0.0
 11
4.32
 21
5.259
 31
4.0
1001
AME_SOL
1070
     1
1071
      159
  0
LINE
  8
0
 62
     0
  5
F0
 10
4.193001
 20
5.361
 30
0.0
 11
4.193001
 21
5.361
 31
4.0
1001
AME_SOL
1070
     1
1071
      158
  0
LINE
  8
0
 62
     0
  5
F1
 10
4.091
 20
5.462
 30
0.0
 11
4.091
 21
5.462
 31
4.0
1001
AME_SOL
1070
     1
1071
      157
  0
LINE
  8
0
 62
     0
  5
F2
 10
3.964001
 20
5.564
 30
0.0
 11
3.964001
 21
5.564
 31
4.0
1001
AME_SOL
1070
     1
1071
      156
  0
LINE
  8
0
 62
     0
  5
F3
 10
3.812
 20
5.665
 30
0.0
 11
3.812
 21
5.665
 31
4.0
1001
AME_SOL
1070
     1
1071
      155
  0
LINE
  8
0
 62
     0
  5
F4
 10
3.685001
 20
5.742
 30
0.0
 11
3.685001
 21
5.742
 31
4.0
1001
AME_SOL
1070
     1
1071
      154
  0
LINE
  8
0
 62
     0
  5
F5
 10
3.532001
 20
5.818
 30
0.0
 11
3.532001
 21
5.818
 31
4.0
1001
AME_SOL
1070
     1
1071
      153
  0
LINE
  8
0
 62
     0
  5
F6
 10
3.380001
 20
5.894
 30
0.0
 11
3.380001
 21
5.894
 31
4.0
1001
AME_SOL
1070
     1
1071
      152
  0
LINE
  8
0
 62
     0
  5
F7
 10
3.023998
 20
5.996
 30
0.0
 11
3.023998
 21
5.996
 31
4.0
1001
AME_SOL
1070
     1
1071
      151
  0
LINE
  8
0
 62
     0
  5
F8
 10
2.871998
 20
6.072
 30
0.0
 11
2.871998
 21
6.072
 31
4.0
1001
AME_SOL
1070
     1
1071
      150
  0
LINE
  8
0
 62
     0
  5
F9
 10
2.667999
 20
6.097
 30
0.0
 11
2.667999
 21
6.097
 31
4.0
1001
AME_SOL
1070
     1
1071
      149
  0
LINE
  8
0
 62
     0
  5
FA
 10
2.489998
 20
6.148
 30
0.0
 11
2.489998
 21
6.148
 31
4.0
1001
AME_SOL
1070
     1
1071
      148
  0
LINE
  8
0
 62
     0
  5
FB
 10
2.286999
 20
6.174
 30
0.0
 11
2.286999
 21
6.174
 31
4.0
1001
AME_SOL
1070
     1
1071
      147
  0
LINE
  8
0
 62
     0
  5
FC
 10
2.084
 20
6.174
 30
0.0
 11
2.084
 21
6.174
 31
4.0
1001
AME_SOL
1070
     1
1071
      146
  0
LINE
  8
0
 62
     0
  5
FD
 10
0.0
 20
6.199
 30
0.0
 11
0.0
 21
6.199
 31
4.0
1001
AME_SOL
1070
     1
1071
      145
  0
LINE
  8
0
 62
     0
  5
FE
 10
1.881001
 20
6.199
 30
0.0
 11
1.881001
 21
6.199
 31
4.0
1001
AME_SOL
1070
     1
1071
      144
  0
LINE
  8
0
 62
     0
  5
FF
 10
0.0
 20
6.199
 30
4.0
 11
0.0
 21
0.0
 31
4.0
1001
AME_SOL
1070
     1
1071
      143
  0
LINE
  8
0
 62
     0
  5
100
 10
0.0
 20
0.0
 30
4.0
 11
2.286999
 21
0.0
 31
4.0
1001
AME_SOL
1070
     1
1071
      142
  0
LINE
  8
0
 62
     0
  5
101
 10
2.286999
 20
0.0
 30
4.0
 11
2.439999
 21
0.025
 31
4.0
1001
AME_SOL
1070
     1
1071
      141
  0
LINE
  8
0
 62
     0
  5
102
 10
2.439999
 20
0.025
 30
4.0
 11
2.591999
 21
0.051
 31
4.0
1001
AME_SOL
1070
     1
1071
      140
  0
LINE
  8
0
 62
     0
  5
103
 10
2.591999
 20
0.051
 30
4.0
 11
2.743999
 21
0.076
 31
4.0
1001
AME_SOL
1070
     1
1071
      139
  0
LINE
  8
0
 62
     0
  5
104
 10
2.743999
 20
0.076
 30
4.0
 11
2.896999
 21
0.102
 31
4.0
1001
AME_SOL
1070
     1
1071
      138
  0
LINE
  8
0
 62
     0
  5
105
 10
2.896999
 20
0.102
 30
4.0
 11
3.023998
 21
0.152
 31
4.0
1001
AME_SOL
1070
     1
1071
      137
  0
LINE
  8
0
 62
     0
  5
106
 10
3.023998
 20
0.152
 30
4.0
 11
3.175999
 21
0.203
 31
4.0
1001
AME_SOL
1070
     1
1071
      136
  0
LINE
  8
0
 62
     0
  5
107
 10
3.175999
 20
0.203
 30
4.0
 11
3.328999
 21
0.254
 31
4.0
1001
AME_SOL
1070
     1
1071
      135
  0
LINE
  8
0
 62
     0
  5
108
 10
3.328998
 20
0.254
 30
4.0
 11
3.456001
 21
0.305
 31
4.0
1001
AME_SOL
1070
     1
1071
      134
  0
LINE
  8
0
 62
     0
  5
109
 10
3.456001
 20
0.305
 30
4.0
 11
3.583
 21
0.381
 31
4.0
1001
AME_SOL
1070
     1
1071
      133
  0
LINE
  8
0
 62
     0
  5
10A
 10
3.583
 20
0.381
 30
4.0
 11
3.735001
 21
0.457
 31
4.0
1001
AME_SOL
1070
     1
1071
      132
  0
LINE
  8
0
 62
     0
  5
10B
 10
3.735001
 20
0.457
 30
4.0
 11
3.862999
 21
0.534
 31
4.0
1001
AME_SOL
1070
     1
1071
      131
  0
LINE
  8
0
 62
     0
  5
10C
 10
3.862999
 20
0.534
 30
4.0
 11
3.989998
 21
0.61
 31
4.0
1001
AME_SOL
1070
     1
1071
      130
  0
LINE
  8
0
 62
     0
  5
10D
 10
3.989998
 20
0.61
 30
4.0
 11
4.091
 21
0.712
 31
4.0
1001
AME_SOL
1070
     1
1071
      129
  0
LINE
  8
0
 62
     0
  5
10E
 10
4.091
 20
0.712
 30
4.0
 11
4.217998
 21
0.813
 31
4.0
1001
AME_SOL
1070
     1
1071
      128
  0
LINE
  8
0
 62
     0
  5
10F
 10
4.217999
 20
0.813
 30
4.0
 11
4.422001
 21
1.016
 31
4.0
1001
AME_SOL
1070
     1
1071
      127
  0
LINE
  8
0
 62
     0
  5
110
 10
4.422001
 20
1.016
 30
4.0
 11
4.625
 21
1.245
 31
4.0
1001
AME_SOL
1070
     1
1071
      126
  0
LINE
  8
0
 62
     0
  5
111
 10
4.625
 20
1.245
 30
4.0
 11
4.777
 21
1.499
 31
4.0
1001
AME_SOL
1070
     1
1071
      125
  0
LINE
  8
0
 62
     0
  5
112
 10
4.777
 20
1.499
 30
4.0
 11
4.93
 21
1.779
 31
4.0
1001
AME_SOL
1070
     1
1071
      124
  0
LINE
  8
0
 62
     0
  5
113
 10
4.93
 20
1.779
 30
4.0
 11
5.056999
 21
2.058
 31
4.0
1001
AME_SOL
1070
     1
1071
      123
  0
LINE
  8
0
 62
     0
  5
114
 10
5.056999
 20
2.058
 30
4.0
 11
5.132999
 21
2.363
 31
4.0
1001
AME_SOL
1070
     1
1071
      122
  0
LINE
  8
0
 62
     0
  5
115
 10
5.132999
 20
2.363
 30
4.0
 11
5.183998
 21
2.693
 31
4.0
1001
AME_SOL
1070
     1
1071
      121
  0
LINE
  8
0
 62
     0
  5
116
 10
5.183998
 20
2.693
 30
4.0
 11
5.209
 21
3.024
 31
4.0
1001
AME_SOL
1070
     1
1071
      120
  0
LINE
  8
0
 62
     0
  5
117
 10
5.209
 20
3.024
 30
4.0
 11
5.183998
 21
3.353
 31
4.0
1001
AME_SOL
1070
     1
1071
      119
  0
LINE
  8
0
 62
     0
  5
118
 10
5.183998
 20
3.353
 30
4.0
 11
5.158001
 21
3.658
 31
4.0
1001
AME_SOL
1070
     1
1071
      118
  0
LINE
  8
0
 62
     0
  5
119
 10
5.158001
 20
3.658
 30
4.0
 11
5.082001
 21
3.963
 31
4.0
1001
AME_SOL
1070
     1
1071
      117
  0
LINE
  8
0
 62
     0
  5
11A
 10
5.082001
 20
3.963
 30
4.0
 11
4.980999
 21
4.268
 31
4.0
1001
AME_SOL
1070
     1
1071
      116
  0
LINE
  8
0
 62
     0
  5
11B
 10
4.980999
 20
4.268
 30
4.0
 11
4.854
 21
4.547
 31
4.0
1001
AME_SOL
1070
     1
1071
      115
  0
LINE
  8
0
 62
     0
  5
11C
 10
4.854
 20
4.547
 30
4.0
 11
4.701
 21
4.802
 31
4.0
1001
AME_SOL
1070
     1
1071
      114
  0
LINE
  8
0
 62
     0
  5
11D
 10
4.701
 20
4.802
 30
4.0
 11
4.522999
 21
5.03
 31
4.0
1001
AME_SOL
1070
     1
1071
      113
  0
LINE
  8
0
 62
     0
  5
11E
 10
4.522999
 20
5.03
 30
4.0
 11
4.32
 21
5.259
 31
4.0
1001
AME_SOL
1070
     1
1071
      112
  0
LINE
  8
0
 62
     0
  5
11F
 10
4.32
 20
5.259
 30
4.0
 11
4.193001
 21
5.361
 31
4.0
1001
AME_SOL
1070
     1
1071
      111
  0
LINE
  8
0
 62
     0
  5
120
 10
4.193001
 20
5.361
 30
4.0
 11
4.091
 21
5.462
 31
4.0
1001
AME_SOL
1070
     1
1071
      110
  0
LINE
  8
0
 62
     0
  5
121
 10
4.091
 20
5.462
 30
4.0
 11
3.964001
 21
5.564001
 31
4.0
1001
AME_SOL
1070
     1
1071
      109
  0
LINE
  8
0
 62
     0
  5
122
 10
3.964001
 20
5.564
 30
4.0
 11
3.812
 21
5.665
 31
4.0
1001
AME_SOL
1070
     1
1071
      108
  0
LINE
  8
0
 62
     0
  5
123
 10
3.812
 20
5.665
 30
4.0
 11
3.685001
 21
5.742
 31
4.0
1001
AME_SOL
1070
     1
1071
      107
  0
LINE
  8
0
 62
     0
  5
124
 10
3.685001
 20
5.742
 30
4.0
 11
3.532001
 21
5.818
 31
4.0
1001
AME_SOL
1070
     1
1071
      106
  0
LINE
  8
0
 62
     0
  5
125
 10
3.532001
 20
5.818
 30
4.0
 11
3.380001
 21
5.894
 31
4.0
1001
AME_SOL
1070
     1
1071
      105
  0
LINE
  8
0
 62
     0
  5
126
 10
3.380001
 20
5.894
 30
4.0
 11
3.023998
 21
5.996001
 31
4.0
1001
AME_SOL
1070
     1
1071
      104
  0
LINE
  8
0
 62
     0
  5
127
 10
3.023998
 20
5.996
 30
4.0
 11
2.871998
 21
6.072
 31
4.0
1001
AME_SOL
1070
     1
1071
      103
  0
LINE
  8
0
 62
     0
  5
128
 10
2.871998
 20
6.072
 30
4.0
 11
2.667999
 21
6.097001
 31
4.0
1001
AME_SOL
1070
     1
1071
      102
  0
LINE
  8
0
 62
     0
  5
129
 10
2.667999
 20
6.097
 30
4.0
 11
2.489998
 21
6.148
 31
4.0
1001
AME_SOL
1070
     1
1071
      101
  0
LINE
  8
0
 62
     0
  5
12A
 10
2.489998
 20
6.148
 30
4.0
 11
2.286999
 21
6.174
 31
4.0
1001
AME_SOL
1070
     1
1071
      100
  0
LINE
  8
0
 62
     0
  5
12B
 10
2.286999
 20
6.174
 30
4.0
 11
2.084
 21
6.174
 31
4.0
1001
AME_SOL
1070
     1
1071
       99
  0
LINE
  8
0
 62
     0
  5
12C
 10
2.084
 20
6.174
 30
4.0
 11
1.881
 21
6.199
 31
4.0
1001
AME_SOL
1070
     1
1071
       98
  0
LINE
  8
0
 62
     0
  5
12D
 10
1.881001
 20
6.199
 30
4.0
 11
0.0
 21
6.199
 31
4.0
1001
AME_SOL
1070
     1
1071
       97
  0
LINE
  8
0
 62
     0
  5
12E
 10
0.0
 20
6.199
 30
0.0
 11
0.0
 21
0.0
 31
0.0
1001
AME_SOL
1070
     1
1071
       96
  0
LINE
  8
0
 62
     0
  5
12F
 10
0.0
 20
0.0
 30
0.0
 11
2.286999
 21
0.0
 31
0.0
1001
AME_SOL
1070
     1
1071
       95
  0
LINE
  8
0
 62
     0
  5
130
 10
2.286999
 20
0.0
 30
0.0
 11
2.439999
 21
0.025
 31
0.0
1001
AME_SOL
1070
     1
1071
       94
  0
LINE
  8
0
 62
     0
  5
131
 10
2.439999
 20
0.025
 30
0.0
 11
2.591999
 21
0.051
 31
0.0
1001
AME_SOL
1070
     1
1071
       93
  0
LINE
  8
0
 62
     0
  5
132
 10
2.591999
 20
0.051
 30
0.0
 11
2.743999
 21
0.076
 31
0.0
1001
AME_SOL
1070
     1
1071
       92
  0
LINE
  8
0
 62
     0
  5
133
 10
2.743999
 20
0.076
 30
0.0
 11
2.896999
 21
0.102
 31
0.0
1001
AME_SOL
1070
     1
1071
       91
  0
LINE
  8
0
 62
     0
  5
134
 10
2.896999
 20
0.102
 30
0.0
 11
3.023998
 21
0.152
 31
0.0
1001
AME_SOL
1070
     1
1071
       90
  0
LINE
  8
0
 62
     0
  5
135
 10
3.023998
 20
0.152
 30
0.0
 11
3.175999
 21
0.203
 31
0.0
1001
AME_SOL
1070
     1
1071
       89
  0
LINE
  8
0
 62
     0
  5
136
 10
3.175999
 20
0.203
 30
0.0
 11
3.328999
 21
0.254
 31
0.0
1001
AME_SOL
1070
     1
1071
       88
  0
LINE
  8
0
 62
     0
  5
137
 10
3.328998
 20
0.254
 30
0.0
 11
3.456001
 21
0.305
 31
0.0
1001
AME_SOL
1070
     1
1071
       87
  0
LINE
  8
0
 62
     0
  5
138
 10
3.456001
 20
0.305
 30
0.0
 11
3.583
 21
0.381
 31
0.0
1001
AME_SOL
1070
     1
1071
       86
  0
LINE
  8
0
 62
     0
  5
139
 10
3.583
 20
0.381
 30
0.0
 11
3.735001
 21
0.457
 31
0.0
1001
AME_SOL
1070
     1
1071
       85
  0
LINE
  8
0
 62
     0
  5
13A
 10
3.735001
 20
0.457
 30
0.0
 11
3.862999
 21
0.534
 31
0.0
1001
AME_SOL
1070
     1
1071
       84
  0
LINE
  8
0
 62
     0
  5
13B
 10
3.862999
 20
0.534
 30
0.0
 11
3.989998
 21
0.61
 31
0.0
1001
AME_SOL
1070
     1
1071
       83
  0
LINE
  8
0
 62
     0
  5
13C
 10
3.989998
 20
0.61
 30
0.0
 11
4.091
 21
0.712
 31
0.0
1001
AME_SOL
1070
     1
1071
       82
  0
LINE
  8
0
 62
     0
  5
13D
 10
4.091
 20
0.712
 30
0.0
 11
4.217998
 21
0.813
 31
0.0
1001
AME_SOL
1070
     1
1071
       81
  0
LINE
  8
0
 62
     0
  5
13E
 10
4.217999
 20
0.813
 30
0.0
 11
4.422001
 21
1.016
 31
0.0
1001
AME_SOL
1070
     1
1071
       80
  0
LINE
  8
0
 62
     0
  5
13F
 10
4.422001
 20
1.016
 30
0.0
 11
4.625
 21
1.245
 31
0.0
1001
AME_SOL
1070
     1
1071
       79
  0
LINE
  8
0
 62
     0
  5
140
 10
4.625
 20
1.245
 30
0.0
 11
4.777
 21
1.499
 31
0.0
1001
AME_SOL
1070
     1
1071
       78
  0
LINE
  8
0
 62
     0
  5
141
 10
4.777
 20
1.499
 30
0.0
 11
4.93
 21
1.779
 31
0.0
1001
AME_SOL
1070
     1
1071
       77
  0
LINE
  8
0
 62
     0
  5
142
 10
4.93
 20
1.779
 30
0.0
 11
5.056999
 21
2.058
 31
0.0
1001
AME_SOL
1070
     1
1071
       76
  0
LINE
  8
0
 62
     0
  5
143
 10
5.056999
 20
2.058
 30
0.0
 11
5.132999
 21
2.363
 31
0.0
1001
AME_SOL
1070
     1
1071
       75
  0
LINE
  8
0
 62
     0
  5
144
 10
5.132999
 20
2.363
 30
0.0
 11
5.183998
 21
2.693
 31
0.0
1001
AME_SOL
1070
     1
1071
       74
  0
LINE
  8
0
 62
     0
  5
145
 10
5.183998
 20
2.693
 30
0.0
 11
5.209
 21
3.024
 31
0.0
1001
AME_SOL
1070
     1
1071
       73
  0
LINE
  8
0
 62
     0
  5
146
 10
5.209
 20
3.024
 30
0.0
 11
5.183998
 21
3.353
 31
0.0
1001
AME_SOL
1070
     1
1071
       72
  0
LINE
  8
0
 62
     0
  5
147
 10
5.183998
 20
3.353
 30
0.0
 11
5.158001
 21
3.658
 31
0.0
1001
AME_SOL
1070
     1
1071
       71
  0
LINE
  8
0
 62
     0
  5
148
 10
5.158001
 20
3.658
 30
0.0
 11
5.082001
 21
3.963
 31
0.0
1001
AME_SOL
1070
     1
1071
       70
  0
LINE
  8
0
 62
     0
  5
149
 10
5.082001
 20
3.963
 30
0.0
 11
4.980999
 21
4.268
 31
0.0
1001
AME_SOL
1070
     1
1071
       69
  0
LINE
  8
0
 62
     0
  5
14A
 10
4.980999
 20
4.268
 30
0.0
 11
4.854
 21
4.547
 31
0.0
1001
AME_SOL
1070
     1
1071
       68
  0
LINE
  8
0
 62
     0
  5
14B
 10
4.854
 20
4.547
 30
0.0
 11
4.701
 21
4.802
 31
0.0
1001
AME_SOL
1070
     1
1071
       67
  0
LINE
  8
0
 62
     0
  5
14C
 10
4.701
 20
4.802
 30
0.0
 11
4.522999
 21
5.03
 31
0.0
1001
AME_SOL
1070
     1
1071
       66
  0
LINE
  8
0
 62
     0
  5
14D
 10
4.522999
 20
5.03
 30
0.0
 11
4.32
 21
5.259
 31
0.0
1001
AME_SOL
1070
     1
1071
       65
  0
LINE
  8
0
 62
     0
  5
14E
 10
4.32
 20
5.259
 30
0.0
 11
4.193001
 21
5.361
 31
0.0
1001
AME_SOL
1070
     1
1071
       64
  0
LINE
  8
0
 62
     0
  5
14F
 10
4.193001
 20
5.361
 30
0.0
 11
4.091
 21
5.462
 31
0.0
1001
AME_SOL
1070
     1
1071
       63
  0
LINE
  8
0
 62
     0
  5
150
 10
4.091
 20
5.462
 30
0.0
 11
3.964001
 21
5.564001
 31
0.0
1001
AME_SOL
1070
     1
1071
       62
  0
LINE
  8
0
 62
     0
  5
151
 10
3.964001
 20
5.564
 30
0.0
 11
3.812
 21
5.665
 31
0.0
1001
AME_SOL
1070
     1
1071
       61
  0
LINE
  8
0
 62
     0
  5
152
 10
3.812
 20
5.665
 30
0.0
 11
3.685001
 21
5.742
 31
0.0
1001
AME_SOL
1070
     1
1071
       60
  0
LINE
  8
0
 62
     0
  5
153
 10
3.685001
 20
5.742
 30
0.0
 11
3.532001
 21
5.818
 31
0.0
1001
AME_SOL
1070
     1
1071
       59
  0
LINE
  8
0
 62
     0
  5
154
 10
3.532001
 20
5.818
 30
0.0
 11
3.380001
 21
5.894
 31
0.0
1001
AME_SOL
1070
     1
1071
       58
  0
LINE
  8
0
 62
     0
  5
155
 10
3.380001
 20
5.894
 30
0.0
 11
3.023998
 21
5.996001
 31
0.0
1001
AME_SOL
1070
     1
1071
       57
  0
LINE
  8
0
 62
     0
  5
156
 10
3.023998
 20
5.996
 30
0.0
 11
2.871998
 21
6.072
 31
0.0
1001
AME_SOL
1070
     1
1071
       56
  0
LINE
  8
0
 62
     0
  5
157
 10
2.871998
 20
6.072
 30
0.0
 11
2.667999
 21
6.097001
 31
0.0
1001
AME_SOL
1070
     1
1071
       55
  0
LINE
  8
0
 62
     0
  5
158
 10
2.667999
 20
6.097
 30
0.0
 11
2.489998
 21
6.148
 31
0.0
1001
AME_SOL
1070
     1
1071
       54
  0
LINE
  8
0
 62
     0
  5
159
 10
2.489998
 20
6.148
 30
0.0
 11
2.286999
 21
6.174
 31
0.0
1001
AME_SOL
1070
     1
1071
       53
  0
LINE
  8
0
 62
     0
  5
15A
 10
2.286999
 20
6.174
 30
0.0
 11
2.084
 21
6.174
 31
0.0
1001
AME_SOL
1070
     1
1071
       52
  0
LINE
  8
0
 62
     0
  5
15B
 10
2.084
 20
6.174
 30
0.0
 11
1.881
 21
6.199
 31
0.0
1001
AME_SOL
1070
     1
1071
       51
  0
LINE
  8
0
 62
     0
  5
15C
 10
1.881001
 20
6.199
 30
0.0
 11
0.0
 21
6.199
 31
0.0
1001
AME_SOL
1070
     1
1071
       50
  0
ENDBLK
  8
0
  5
15D
  0
BLOCK
  8
0
  5
163
  2
*U3
 70
    65
 10
0.0
 20
0.0
 30
0.0
  1
*U
  0
LINE
  8
0
 62
     0
  5
164
 10
1.27
 20
-5.157
 30
0.0
 11
1.27
 21
-5.157
 31
4.0
1001
AME_SOL
1070
     1
1071
      162
  0
LINE
  8
0
 62
     0
  5
165
 10
1.575001
 20
-5.106
 30
0.0
 11
1.575001
 21
-5.106
 31
4.0
1001
AME_SOL
1070
     1
1071
      161
  0
LINE
  8
0
 62
     0
  5
166
 10
1.880001
 20
-5.081
 30
0.0
 11
1.880001
 21
-5.081
 31
4.0
1001
AME_SOL
1070
     1
1071
      160
  0
LINE
  8
0
 62
     0
  5
167
 10
2.159
 20
-5.004
 30
0.0
 11
2.159
 21
-5.004
 31
4.0
1001
AME_SOL
1070
     1
1071
      159
  0
LINE
  8
0
 62
     0
  5
168
 10
2.414001
 20
-4.903
 30
0.0
 11
2.414001
 21
-4.903
 31
4.0
1001
AME_SOL
1070
     1
1071
      158
  0
LINE
  8
0
 62
     0
  5
169
 10
2.642002
 20
-4.801
 30
0.0
 11
2.642002
 21
-4.801
 31
4.0
1001
AME_SOL
1070
     1
1071
      157
  0
LINE
  8
0
 62
     0
  5
16A
 10
2.871002
 20
-4.674
 30
0.0
 11
2.871002
 21
-4.674
 31
4.0
1001
AME_SOL
1070
     1
1071
      156
  0
LINE
  8
0
 62
     0
  5
16B
 10
3.100002
 20
-4.522
 30
0.0
 11
3.100002
 21
-4.522
 31
4.0
1001
AME_SOL
1070
     1
1071
      155
  0
LINE
  8
0
 62
     0
  5
16C
 10
3.303001
 20
-4.369
 30
0.0
 11
3.303001
 21
-4.369
 31
4.0
1001
AME_SOL
1070
     1
1071
      154
  0
LINE
  8
0
 62
     0
  5
16D
 10
3.480999
 20
-4.166
 30
0.0
 11
3.480999
 21
-4.166
 31
4.0
1001
AME_SOL
1070
     1
1071
      153
  0
LINE
  8
0
 62
     0
  5
16E
 10
3.632999
 20
-3.963
 30
0.0
 11
3.632999
 21
-3.963
 31
4.0
1001
AME_SOL
1070
     1
1071
      152
  0
LINE
  8
0
 62
     0
  5
16F
 10
3.760002
 20
-3.734
 30
0.0
 11
3.760002
 21
-3.734
 31
4.0
1001
AME_SOL
1070
     1
1071
      151
  0
LINE
  8
0
 62
     0
  5
170
 10
3.862
 20
-3.505
 30
0.0
 11
3.862
 21
-3.505
 31
4.0
1001
AME_SOL
1070
     1
1071
      150
  0
LINE
  8
0
 62
     0
  5
171
 10
3.938
 20
-3.226
 30
0.0
 11
3.938
 21
-3.226
 31
4.0
1001
AME_SOL
1070
     1
1071
      149
  0
LINE
  8
0
 62
     0
  5
172
 10
4.014
 20
-2.946
 30
0.0
 11
4.014
 21
-2.946
 31
4.0
1001
AME_SOL
1070
     1
1071
      148
  0
LINE
  8
0
 62
     0
  5
173
 10
4.040001
 20
-2.641
 30
0.0
 11
4.040001
 21
-2.641
 31
4.0
1001
AME_SOL
1070
     1
1071
      147
  0
LINE
  8
0
 62
     0
  5
174
 10
4.014
 20
-2.388
 30
0.0
 11
4.014
 21
-2.388
 31
4.0
1001
AME_SOL
1070
     1
1071
      146
  0
LINE
  8
0
 62
     0
  5
175
 10
3.989002
 20
-2.134
 30
0.0
 11
3.989002
 21
-2.134
 31
4.0
1001
AME_SOL
1070
     1
1071
      145
  0
LINE
  8
0
 62
     0
  5
176
 10
3.938
 20
-1.88
 30
0.0
 11
3.938
 21
-1.88
 31
4.0
1001
AME_SOL
1070
     1
1071
      144
  0
LINE
  8
0
 62
     0
  5
177
 10
3.862
 20
-1.626
 30
0.0
 11
3.862
 21
-1.626
 31
4.0
1001
AME_SOL
1070
     1
1071
      143
  0
LINE
  8
0
 62
     0
  5
178
 10
3.760002
 20
-1.397
 30
0.0
 11
3.760002
 21
-1.397
 31
4.0
1001
AME_SOL
1070
     1
1071
      142
  0
LINE
  8
0
 62
     0
  5
179
 10
3.632999
 20
-1.194
 30
0.0
 11
3.632999
 21
-1.194
 31
4.0
1001
AME_SOL
1070
     1
1071
      141
  0
LINE
  8
0
 62
     0
  5
17A
 10
3.480999
 20
-0.991
 30
0.0
 11
3.480999
 21
-0.991
 31
4.0
1001
AME_SOL
1070
     1
1071
      140
  0
LINE
  8
0
 62
     0
  5
17B
 10
3.303001
 20
-0.787
 30
0.0
 11
3.303001
 21
-0.787
 31
4.0
1001
AME_SOL
1070
     1
1071
      139
  0
LINE
  8
0
 62
     0
  5
17C
 10
3.201
 20
-0.686
 30
0.0
 11
3.201
 21
-0.686
 31
4.0
1001
AME_SOL
1070
     1
1071
      138
  0
LINE
  8
0
 62
     0
  5
17D
 10
3.100002
 20
-0.609
 30
0.0
 11
3.100002
 21
-0.609
 31
4.0
1001
AME_SOL
1070
     1
1071
      137
  0
LINE
  8
0
 62
     0
  5
17E
 10
2.896
 20
-0.457
 30
0.0
 11
2.896
 21
-0.457
 31
4.0
1001
AME_SOL
1070
     1
1071
      136
  0
LINE
  8
0
 62
     0
  5
17F
 10
2.769001
 20
-0.381
 30
0.0
 11
2.769001
 21
-0.381
 31
4.0
1001
AME_SOL
1070
     1
1071
      135
  0
LINE
  8
0
 62
     0
  5
180
 10
2.642002
 20
-0.33
 30
0.0
 11
2.642002
 21
-0.33
 31
4.0
1001
AME_SOL
1070
     1
1071
      134
  0
LINE
  8
0
 62
     0
  5
181
 10
2.514999
 20
-0.254
 30
0.0
 11
2.514999
 21
-0.254
 31
4.0
1001
AME_SOL
1070
     1
1071
      133
  0
LINE
  8
0
 62
     0
  5
182
 10
2.388
 20
-0.203
 30
0.0
 11
2.388
 21
-0.203
 31
4.0
1001
AME_SOL
1070
     1
1071
      132
  0
LINE
  8
0
 62
     0
  5
183
 10
2.236
 20
-0.152
 30
0.0
 11
2.236
 21
-0.152
 31
4.0
1001
AME_SOL
1070
     1
1071
      131
  0
LINE
  8
0
 62
     0
  5
184
 10
2.083
 20
-0.127
 30
0.0
 11
2.083
 21
-0.127
 31
4.0
1001
AME_SOL
1070
     1
1071
      130
  0
LINE
  8
0
 62
     0
  5
185
 10
1.931
 20
-0.076
 30
0.0
 11
1.931
 21
-0.076
 31
4.0
1001
AME_SOL
1070
     1
1071
      129
  0
LINE
  8
0
 62
     0
  5
186
 10
1.778
 20
-0.05
 30
0.0
 11
1.778
 21
-0.05
 31
4.0
1001
AME_SOL
1070
     1
1071
      128
  0
LINE
  8
0
 62
     0
  5
187
 10
1.600002
 20
-0.025
 30
0.0
 11
1.600002
 21
-0.025
 31
4.0
1001
AME_SOL
1070
     1
1071
      127
  0
LINE
  8
0
 62
     0
  5
188
 10
1.423
 20
-0.025
 30
0.0
 11
1.423
 21
-0.025
 31
4.0
1001
AME_SOL
1070
     1
1071
      126
  0
LINE
  8
0
 62
     0
  5
189
 10
1.244999
 20
0.0
 30
0.0
 11
1.244999
 21
0.0
 31
4.0
1001
AME_SOL
1070
     1
1071
      125
  0
LINE
  8
0
 62
     0
  5
18A
 10
0.0
 20
-5.157
 30
0.0
 11
0.0
 21
-5.157
 31
4.0
1001
AME_SOL
1070
     1
1071
      124
  0
LINE
  8
0
 62
     0
  5
18B
 10
0.0
 20
0.0
 30
0.0
 11
0.0
 21
0.0
 31
4.0
1001
AME_SOL
1070
     1
1071
      123
  0
LINE
  8
0
 62
     0
  5
18C
 10
0.0
 20
-5.157
 30
4.0
 11
1.27
 21
-5.157
 31
4.0
1001
AME_SOL
1070
     1
1071
      122
  0
LINE
  8
0
 62
     0
  5
18D
 10
1.27
 20
-5.157
 30
4.0
 11
1.575001
 21
-5.106
 31
4.0
1001
AME_SOL
1070
     1
1071
      121
  0
LINE
  8
0
 62
     0
  5
18E
 10
1.575001
 20
-5.106
 30
4.0
 11
1.880001
 21
-5.081
 31
4.0
1001
AME_SOL
1070
     1
1071
      120
  0
LINE
  8
0
 62
     0
  5
18F
 10
1.880001
 20
-5.081
 30
4.0
 11
2.159
 21
-5.004
 31
4.0
1001
AME_SOL
1070
     1
1071
      119
  0
LINE
  8
0
 62
     0
  5
190
 10
2.159
 20
-5.004
 30
4.0
 11
2.414001
 21
-4.903
 31
4.0
1001
AME_SOL
1070
     1
1071
      118
  0
LINE
  8
0
 62
     0
  5
191
 10
2.414001
 20
-4.903
 30
4.0
 11
2.642002
 21
-4.801
 31
4.0
1001
AME_SOL
1070
     1
1071
      117
  0
LINE
  8
0
 62
     0
  5
192
 10
2.642002
 20
-4.801
 30
4.0
 11
2.871002
 21
-4.674
 31
4.0
1001
AME_SOL
1070
     1
1071
      116
  0
LINE
  8
0
 62
     0
  5
193
 10
2.871002
 20
-4.674
 30
4.0
 11
3.100002
 21
-4.522
 31
4.0
1001
AME_SOL
1070
     1
1071
      115
  0
LINE
  8
0
 62
     0
  5
194
 10
3.100002
 20
-4.522
 30
4.0
 11
3.303001
 21
-4.369
 31
4.0
1001
AME_SOL
1070
     1
1071
      114
  0
LINE
  8
0
 62
     0
  5
195
 10
3.303001
 20
-4.369
 30
4.0
 11
3.480999
 21
-4.166
 31
4.0
1001
AME_SOL
1070
     1
1071
      113
  0
LINE
  8
0
 62
     0
  5
196
 10
3.480999
 20
-4.166
 30
4.0
 11
3.632999
 21
-3.963
 31
4.0
1001
AME_SOL
1070
     1
1071
      112
  0
LINE
  8
0
 62
     0
  5
197
 10
3.632999
 20
-3.963
 30
4.0
 11
3.760002
 21
-3.734
 31
4.0
1001
AME_SOL
1070
     1
1071
      111
  0
LINE
  8
0
 62
     0
  5
198
 10
3.760002
 20
-3.734
 30
4.0
 11
3.862
 21
-3.505
 31
4.0
1001
AME_SOL
1070
     1
1071
      110
  0
LINE
  8
0
 62
     0
  5
199
 10
3.862
 20
-3.505
 30
4.0
 11
3.938
 21
-3.226
 31
4.0
1001
AME_SOL
1070
     1
1071
      109
  0
LINE
  8
0
 62
     0
  5
19A
 10
3.938
 20
-3.226
 30
4.0
 11
4.014
 21
-2.946
 31
4.0
1001
AME_SOL
1070
     1
1071
      108
  0
LINE
  8
0
 62
     0
  5
19B
 10
4.014
 20
-2.946
 30
4.0
 11
4.040001
 21
-2.641
 31
4.0
1001
AME_SOL
1070
     1
1071
      107
  0
LINE
  8
0
 62
     0
  5
19C
 10
4.040001
 20
-2.641
 30
4.0
 11
4.014
 21
-2.388
 31
4.0
1001
AME_SOL
1070
     1
1071
      106
  0
LINE
  8
0
 62
     0
  5
19D
 10
4.014
 20
-2.388
 30
4.0
 11
3.989002
 21
-2.134
 31
4.0
1001
AME_SOL
1070
     1
1071
      105
  0
LINE
  8
0
 62
     0
  5
19E
 10
3.989002
 20
-2.134
 30
4.0
 11
3.938
 21
-1.88
 31
4.0
1001
AME_SOL
1070
     1
1071
      104
  0
LINE
  8
0
 62
     0
  5
19F
 10
3.938
 20
-1.88
 30
4.0
 11
3.862
 21
-1.626
 31
4.0
1001
AME_SOL
1070
     1
1071
      103
  0
LINE
  8
0
 62
     0
  5
1A0
 10
3.862
 20
-1.626
 30
4.0
 11
3.760002
 21
-1.397
 31
4.0
1001
AME_SOL
1070
     1
1071
      102
  0
LINE
  8
0
 62
     0
  5
1A1
 10
3.760002
 20
-1.397
 30
4.0
 11
3.632999
 21
-1.194
 31
4.0
1001
AME_SOL
1070
     1
1071
      101
  0
LINE
  8
0
 62
     0
  5
1A2
 10
3.632999
 20
-1.194
 30
4.0
 11
3.480999
 21
-0.991
 31
4.0
1001
AME_SOL
1070
     1
1071
      100
  0
LINE
  8
0
 62
     0
  5
1A3
 10
3.480999
 20
-0.991
 30
4.0
 11
3.303001
 21
-0.787
 31
4.0
1001
AME_SOL
1070
     1
1071
       99
  0
LINE
  8
0
 62
     0
  5
1A4
 10
3.303001
 20
-0.787
 30
4.0
 11
3.201
 21
-0.686
 31
4.0
1001
AME_SOL
1070
     1
1071
       98
  0
LINE
  8
0
 62
     0
  5
1A5
 10
3.201
 20
-0.686
 30
4.0
 11
3.100002
 21
-0.609
 31
4.0
1001
AME_SOL
1070
     1
1071
       97
  0
LINE
  8
0
 62
     0
  5
1A6
 10
3.100002
 20
-0.609
 30
4.0
 11
2.896
 21
-0.457
 31
4.0
1001
AME_SOL
1070
     1
1071
       96
  0
LINE
  8
0
 62
     0
  5
1A7
 10
2.896
 20
-0.457
 30
4.0
 11
2.769001
 21
-0.381
 31
4.0
1001
AME_SOL
1070
     1
1071
       95
  0
LINE
  8
0
 62
     0
  5
1A8
 10
2.769001
 20
-0.381
 30
4.0
 11
2.642002
 21
-0.33
 31
4.0
1001
AME_SOL
1070
     1
1071
       94
  0
LINE
  8
0
 62
     0
  5
1A9
 10
2.642002
 20
-0.33
 30
4.0
 11
2.514999
 21
-0.254
 31
4.0
1001
AME_SOL
1070
     1
1071
       93
  0
LINE
  8
0
 62
     0
  5
1AA
 10
2.514999
 20
-0.254
 30
4.0
 11
2.388
 21
-0.203
 31
4.0
1001
AME_SOL
1070
     1
1071
       92
  0
LINE
  8
0
 62
     0
  5
1AB
 10
2.388
 20
-0.203
 30
4.0
 11
2.236
 21
-0.152
 31
4.0
1001
AME_SOL
1070
     1
1071
       91
  0
LINE
  8
0
 62
     0
  5
1AC
 10
2.236
 20
-0.152
 30
4.0
 11
2.083
 21
-0.127
 31
4.0
1001
AME_SOL
1070
     1
1071
       90
  0
LINE
  8
0
 62
     0
  5
1AD
 10
2.083
 20
-0.127
 30
4.0
 11
1.931
 21
-0.076
 31
4.0
1001
AME_SOL
1070
     1
1071
       89
  0
LINE
  8
0
 62
     0
  5
1AE
 10
1.931
 20
-0.076
 30
4.0
 11
1.778
 21
-0.05
 31
4.0
1001
AME_SOL
1070
     1
1071
       88
  0
LINE
  8
0
 62
     0
  5
1AF
 10
1.778
 20
-0.05
 30
4.0
 11
1.600002
 21
-0.025
 31
4.0
1001
AME_SOL
1070
     1
1071
       87
  0
LINE
  8
0
 62
     0
  5
1B0
 10
1.600002
 20
-0.025
 30
4.0
 11
1.423
 21
-0.025
 31
4.0
1001
AME_SOL
1070
     1
1071
       86
  0
LINE
  8
0
 62
     0
  5
1B1
 10
1.423
 20
-0.025
 30
4.0
 11
1.244999
 21
0.0
 31
4.0
1001
AME_SOL
1070
     1
1071
       85
  0
LINE
  8
0
 62
     0
  5
1B2
 10
1.244999
 20
0.0
 30
4.0
 11
0.0
 21
0.0
 31
4.0
1001
AME_SOL
1070
     1
1071
       84
  0
LINE
  8
0
 62
     0
  5
1B3
 10
0.0
 20
0.0
 30
4.0
 11
0.0
 21
-5.157
 31
4.0
1001
AME_SOL
1070
     1
1071
       83
  0
LINE
  8
0
 62
     0
  5
1B4
 10
0.0
 20
-5.157
 30
0.0
 11
1.27
 21
-5.157
 31
0.0
1001
AME_SOL
1070
     1
1071
       82
  0
LINE
  8
0
 62
     0
  5
1B5
 10
1.27
 20
-5.157
 30
0.0
 11
1.575001
 21
-5.106
 31
0.0
1001
AME_SOL
1070
     1
1071
       81
  0
LINE
  8
0
 62
     0
  5
1B6
 10
1.575001
 20
-5.106
 30
0.0
 11
1.880001
 21
-5.081
 31
0.0
1001
AME_SOL
1070
     1
1071
       80
  0
LINE
  8
0
 62
     0
  5
1B7
 10
1.880001
 20
-5.081
 30
0.0
 11
2.159
 21
-5.004
 31
0.0
1001
AME_SOL
1070
     1
1071
       79
  0
LINE
  8
0
 62
     0
  5
1B8
 10
2.159
 20
-5.004
 30
0.0
 11
2.414001
 21
-4.903
 31
0.0
1001
AME_SOL
1070
     1
1071
       78
  0
LINE
  8
0
 62
     0
  5
1B9
 10
2.414001
 20
-4.903
 30
0.0
 11
2.642002
 21
-4.801
 31
0.0
1001
AME_SOL
1070
     1
1071
       77
  0
LINE
  8
0
 62
     0
  5
1BA
 10
2.642002
 20
-4.801
 30
0.0
 11
2.871002
 21
-4.674
 31
0.0
1001
AME_SOL
1070
     1
1071
       76
  0
LINE
  8
0
 62
     0
  5
1BB
 10
2.871002
 20
-4.674
 30
0.0
 11
3.100002
 21
-4.522
 31
0.0
1001
AME_SOL
1070
     1
1071
       75
  0
LINE
  8
0
 62
     0
  5
1BC
 10
3.100002
 20
-4.522
 30
0.0
 11
3.303001
 21
-4.369
 31
0.0
1001
AME_SOL
1070
     1
1071
       74
  0
LINE
  8
0
 62
     0
  5
1BD
 10
3.303001
 20
-4.369
 30
0.0
 11
3.480999
 21
-4.166
 31
0.0
1001
AME_SOL
1070
     1
1071
       73
  0
LINE
  8
0
 62
     0
  5
1BE
 10
3.480999
 20
-4.166
 30
0.0
 11
3.632999
 21
-3.963
 31
0.0
1001
AME_SOL
1070
     1
1071
       72
  0
LINE
  8
0
 62
     0
  5
1BF
 10
3.632999
 20
-3.963
 30
0.0
 11
3.760002
 21
-3.734
 31
0.0
1001
AME_SOL
1070
     1
1071
       71
  0
LINE
  8
0
 62
     0
  5
1C0
 10
3.760002
 20
-3.734
 30
0.0
 11
3.862
 21
-3.505
 31
0.0
1001
AME_SOL
1070
     1
1071
       70
  0
LINE
  8
0
 62
     0
  5
1C1
 10
3.862
 20
-3.505
 30
0.0
 11
3.938
 21
-3.226
 31
0.0
1001
AME_SOL
1070
     1
1071
       69
  0
LINE
  8
0
 62
     0
  5
1C2
 10
3.938
 20
-3.226
 30
0.0
 11
4.014
 21
-2.946
 31
0.0
1001
AME_SOL
1070
     1
1071
       68
  0
LINE
  8
0
 62
     0
  5
1C3
 10
4.014
 20
-2.946
 30
0.0
 11
4.040001
 21
-2.641
 31
0.0
1001
AME_SOL
1070
     1
1071
       67
  0
LINE
  8
0
 62
     0
  5
1C4
 10
4.040001
 20
-2.641
 30
0.0
 11
4.014
 21
-2.388
 31
0.0
1001
AME_SOL
1070
     1
1071
       66
  0
LINE
  8
0
 62
     0
  5
1C5
 10
4.014
 20
-2.388
 30
0.0
 11
3.989002
 21
-2.134
 31
0.0
1001
AME_SOL
1070
     1
1071
       65
  0
LINE
  8
0
 62
     0
  5
1C6
 10
3.989002
 20
-2.134
 30
0.0
 11
3.938
 21
-1.88
 31
0.0
1001
AME_SOL
1070
     1
1071
       64
  0
LINE
  8
0
 62
     0
  5
1C7
 10
3.938
 20
-1.88
 30
0.0
 11
3.862
 21
-1.626
 31
0.0
1001
AME_SOL
1070
     1
1071
       63
  0
LINE
  8
0
 62
     0
  5
1C8
 10
3.862
 20
-1.626
 30
0.0
 11
3.760002
 21
-1.397
 31
0.0
1001
AME_SOL
1070
     1
1071
       62
  0
LINE
  8
0
 62
     0
  5
1C9
 10
3.760002
 20
-1.397
 30
0.0
 11
3.632999
 21
-1.194
 31
0.0
1001
AME_SOL
1070
     1
1071
       61
  0
LINE
  8
0
 62
     0
  5
1CA
 10
3.632999
 20
-1.194
 30
0.0
 11
3.480999
 21
-0.991
 31
0.0
1001
AME_SOL
1070
     1
1071
       60
  0
LINE
  8
0
 62
     0
  5
1CB
 10
3.480999
 20
-0.991
 30
0.0
 11
3.303001
 21
-0.787
 31
0.0
1001
AME_SOL
1070
     1
1071
       59
  0
LINE
  8
0
 62
     0
  5
1CC
 10
3.303001
 20
-0.787
 30
0.0
 11
3.201
 21
-0.686
 31
0.0
1001
AME_SOL
1070
     1
1071
       58
  0
LINE
  8
0
 62
     0
  5
1CD
 10
3.201
 20
-0.686
 30
0.0
 11
3.100002
 21
-0.609
 31
0.0
1001
AME_SOL
1070
     1
1071
       57
  0
LINE
  8
0
 62
     0
  5
1CE
 10
3.100002
 20
-0.609
 30
0.0
 11
2.896
 21
-0.457
 31
0.0
1001
AME_SOL
1070
     1
1071
       56
  0
LINE
  8
0
 62
     0
  5
1CF
 10
2.896
 20
-0.457
 30
0.0
 11
2.769001
 21
-0.381
 31
0.0
1001
AME_SOL
1070
     1
1071
       55
  0
LINE
  8
0
 62
     0
  5
1D0
 10
2.769001
 20
-0.381
 30
0.0
 11
2.642002
 21
-0.33
 31
0.0
1001
AME_SOL
1070
     1
1071
       54
  0
LINE
  8
0
 62
     0
  5
1D1
 10
2.642002
 20
-0.33
 30
0.0
 11
2.514999
 21
-0.254
 31
0.0
1001
AME_SOL
1070
     1
1071
       53
  0
LINE
  8
0
 62
     0
  5
1D2
 10
2.514999
 20
-0.254
 30
0.0
 11
2.388
 21
-0.203
 31
0.0
1001
AME_SOL
1070
     1
1071
       52
  0
LINE
  8
0
 62
     0
  5
1D3
 10
2.388
 20
-0.203
 30
0.0
 11
2.236
 21
-0.152
 31
0.0
1001
AME_SOL
1070
     1
1071
       51
  0
LINE
  8
0
 62
     0
  5
1D4
 10
2.236
 20
-0.152
 30
0.0
 11
2.083
 21
-0.127
 31
0.0
1001
AME_SOL
1070
     1
1071
       50
  0
LINE
  8
0
 62
     0
  5
1D5
 10
2.083
 20
-0.127
 30
0.0
 11
1.931
 21
-0.076
 31
0.0
1001
AME_SOL
1070
     1
1071
       49
  0
LINE
  8
0
 62
     0
  5
1D6
 10
1.931
 20
-0.076
 30
0.0
 11
1.778
 21
-0.05
 31
0.0
1001
AME_SOL
1070
     1
1071
       48
  0
LINE
  8
0
 62
     0
  5
1D7
 10
1.778
 20
-0.05
 30
0.0
 11
1.600002
 21
-0.025
 31
0.0
1001
AME_SOL
1070
     1
1071
       47
  0
LINE
  8
0
 62
     0
  5
1D8
 10
1.600002
 20
-0.025
 30
0.0
 11
1.423
 21
-0.025
 31
0.0
1001
AME_SOL
1070
     1
1071
       46
  0
LINE
  8
0
 62
     0
  5
1D9
 10
1.423
 20
-0.025
 30
0.0
 11
1.244999
 21
0.0
 31
0.0
1001
AME_SOL
1070
     1
1071
       45
  0
LINE
  8
0
 62
     0
  5
1DA
 10
1.244999
 20
0.0
 30
0.0
 11
0.0
 21
0.0
 31
0.0
1001
AME_SOL
1070
     1
1071
       44
  0
LINE
  8
0
 62
     0
  5
1DB
 10
0.0
 20
0.0
 30
0.0
 11
0.0
 21
-5.157
 31
0.0
1001
AME_SOL
1070
     1
1071
       43
  0
ENDBLK
  8
0
  5
1DC
  0
BLOCK
  8
0
  5
1E1
  2
*U4
 70
    65
 10
0.0
 20
0.0
 30
0.0
  1
*U
  0
POLYLINE
  8
0
 62
     0
  5
1E2
 66
     1
 10
0.0
 20
0.0
 30
0.0
 70
    64
  0
VERTEX
  8
0
  5
1E3
 10
0.0
 20
6.199
 30
4.0
 70
   192
  0
VERTEX
  8
0
  5
1E4
 10
-0.000001
 20
0.0
 30
0.0
 70
   192
  0
VERTEX
  8
0
  5
1E5
 10
-0.000001
 20
0.0
 30
4.0
 70
   192
  0
VERTEX
  8
0
  5
1E6
 10
0.0
 20
6.199
 30
0.0
 70
   192
  0
VERTEX
  8
0
 62
     0
  5
1E7
 10
0.0
 20
0.0
 30
0.0
 70
   128
 71
    -1
 72
     2
 73
     3
  0
VERTEX
  8
0
 62
     0
  5
1E8
 10
0.0
 20
0.0
 30
0.0
 70
   128
 71
     1
 72
     4
 73
    -2
  0
SEQEND
  8
0
 62
     0
  5
1E9
  0
POLYLINE
  8
0
 62
     0
  5
1EA
 66
     1
 10
0.0
 20
0.0
 30
0.0
 70
    64
  0
VERTEX
  8
0
  5
1EB
 10
0.0
 20
0.0
 30
0.0
 70
   192
  0
VERTEX
  8
0
  5
1EC
 10
2.286999
 20
0.0
 30
0.0
 70
   192
  0
VERTEX
  8
0
  5
1ED
 10
2.286999
 20
0.0
 30
4.0
 70
   192
  0
VERTEX
  8
0
  5
1EE
 10
0.0
 20
0.0
 30
4.0
 70
   192
  0
VERTEX
  8
0
 62
     0
  5
1EF
 10
0.0
 20
0.0
 30
0.0
 70
   128
 71
     1
 72
     2
 73
    -3
  0
VERTEX
  8
0
 62
     0
  5
1F0
 10
0.0
 20
0.0
 30
0.0
 70
   128
 71
     3
 72
     4
 73
    -1
  0
SEQEND
  8
0
 62
     0
  5
1F1
  0
POLYLINE
  8
0
 62
     0
  5
1F2
 66
     1
 10
0.0
 20
0.0
 30
0.0
 70
    64
  0
VERTEX
  8
0
  5
1F3
 10
2.286999
 20
0.0
 30
4.0
 70
   192
  0
VERTEX
  8
0
  5
1F4
 10
2.286999
 20
0.0
 30
0.0
 70
   192
  0
VERTEX
  8
0
  5
1F5
 10
2.439999
 20
0.025
 30
0.0
 70
   192
  0
VERTEX
  8
0
  5
1F6
 10
2.439999
 20
0.025
 30
4.0
 70
   192
  0
VERTEX
  8
0
 62
     0
  5
1F7
 10
0.0
 20
0.0
 30
0.0
 70
   128
 71
     1
 72
     2
 73
    -3
  0
VERTEX
  8
0
 62
     0
  5
1F8
 10
0.0
 20
0.0
 30
0.0
 70
   128
 71
     3
 72
     4
 73
    -1
  0
SEQEND
  8
0
 62
     0
  5
1F9
  0
POLYLINE
  8
0
 62
     0
  5
1FA
 66
     1
 10
0.0
 20
0.0
 30
0.0
 70
    64
  0
VERTEX
  8
0
  5
1FB
 10
2.439999
 20
0.025
 30
4.0
 70
   192
  0
VERTEX
  8
0
  5
1FC
 10
2.439999
 20
0.025
 30
0.0
 70
   192
  0
VERTEX
  8
0
  5
1FD
 10
2.591999
 20
0.051
 30
4.0
 70
   192
  0
VERTEX
  8
0
  5
1FE
 10
2.591999
 20
0.051
 30
0.0
 70
   192
  0
VERTEX
  8
0
 62
     0
  5
1FF
 10
0.0
 20
0.0
 30
0.0
 70
   128
 71
     1
 72
    -3
 73
     2
  0
VERTEX
  8
0
 62
     0
  5
200
 10
0.0
 20
0.0
 30
0.0
 70
   128
 71
    -2
 72
     3
 73
     4
  0
SEQEND
  8
0
 62
     0
  5
201
  0
POLYLINE
  8
0
 62
     0
  5
202
 66
     1
 10
0.0
 20
0.0
 30
0.0
 70
    64
  0
VERTEX
  8
0
  5
203
 10
2.591999
 20
0.051
 30
4.0
 70
   192
  0
VERTEX
  8
0
  5
204
 10
2.743999
 20
0.076
 30
0.0
 70
   192
  0
VERTEX
  8
0
  5
205
 10
2.743999
 20
0.076
 30
4.0
 70
   192
  0
VERTEX
  8
0
  5
206
 10
2.591999
 20
0.051
 30
0.0
 70
   192
  0
VERTEX
  8
0
 62
     0
  5
207
 10
0.0
 20
0.0
 30
0.0
 70
   128
 71
     1
 72
     3
 73
    -2
  0
VERTEX
  8
0
 62
     0
  5
208
 10
0.0
 20
0.0
 30
0.0
 70
   128
 71
    -1
 72
     2
 73
     4
  0
SEQEND
  8
0
 62
     0
  5
209
  0
POLYLINE
  8
0
 62
     0
  5
20A
 66
     1
 10
0.0
 20
0.0
 30
0.0
 70
    64
  0
VERTEX
  8
0
  5
20B
 10
2.743999
 20
0.076
 30
0.0
 70
   192
  0
VERTEX
  8
0
  5
20C
 10
2.896999
 20
0.102
 30
0.0
 70
   192
  0
VERTEX
  8
0
  5
20D
 10
2.896999
 20
0.102
 30
4.0
 70
   192
  0
VERTEX
  8
0
  5
20E
 10
2.743999
 20
0.076
 30
4.0
 70
   192
  0
VERTEX
  8
0
 62
     0
  5
20F
 10
0.0
 20
0.0
 30
0.0
 70
   128
 71
     1
 72
     2
 73
    -3
  0
VERTEX
  8
0
 62
     0
  5
210
 10
0.0
 20
0.0
 30
0.0
 70
   128
 71
     3
 72
     4
 73
    -1
  0
SEQEND
  8
0
 62
     0
  5
211
  0
POLYLINE
  8
0
 62
     0
  5
212
 66
     1
 10
0.0
 20
0.0
 30
0.0
 70
    64
  0
VERTEX
  8
0
  5
213
 10
2.896999
 20
0.102
 30
4.0
 70
   192
  0
VERTEX
  8
0
  5
214
 10
2.896999
 20
0.102
 30
0.0
 70
   192
  0
VERTEX
  8
0
  5
215
 10
3.023998
 20
0.152
 30
0.0
 70
   192
  0
VERTEX
  8
0
  5
216
 10
3.023998
 20
0.152
 30
4.0
 70
   192
  0
VERTEX
  8
0
 62
     0
  5
217
 10
0.0
 20
0.0
 30
0.0
 70
   128
 71
    -1
 72
     3
 73
     2
  0
VERTEX
  8
0
 62
     0
  5
218
 10
0.0
 20
0.0
 30
0.0
 70
   128
 71
    -3
 72
     1
 73
     4
  0
SEQEND
  8
0
 62
     0
  5
219
  0
POLYLINE
  8
0
 62
     0
  5
21A
 66
     1
 10
0.0
 20
0.0
 30
0.0
 70
    64
  0
VERTEX
  8
0
  5
21B
 10
3.023998
 20
0.152
 30
4.0
 70
   192
  0
VERTEX
  8
0
  5
21C
 10
3.023998
 20
0.152
 30
0.0
 70
   192
  0
VERTEX
  8
0
  5
21D
 10
3.175999
 20
0.203
 30
4.0
 70
   192
  0
VERTEX
  8
0
  5
21E
 10
3.175999
 20
0.203
 30
0.0
 70
   192
  0
VERTEX
  8
0
 62
     0
  5
21F
 10
0.0
 20
0.0
 30
0.0
 70
   128
 71
     1
 72
    -3
 73
     2
  0
VERTEX
  8
0
 62
     0
  5
220
 10
0.0
 20
0.0
 30
0.0
 70
   128
 71
    -2
 72
     3
 73
     4
  0
SEQEND
  8
0
 62
     0
  5
221
  0
POLYLINE
  8
0
 62
     0
  5
222
 66
     1
 10
0.0
 20
0.0
 30
0.0
 70
    64
  0
VERTEX
  8
0
  5
223
 10
3.175999
 20
0.203
 30
4.0
 70
   192
  0
VERTEX
  8
0
  5
224
 10
3.328998
 20
0.254
 30
0.0
 70
   192
  0
VERTEX
  8
0
  5
225
 10
3.328998
 20
0.254
 30
4.0
 70
   192
  0
VERTEX
  8
0
  5
226
 10
3.175999
 20
0.203
 30
0.0
 70
   192
  0
VERTEX
  8
0
 62
     0
  5
227
 10
0.0
 20
0.0
 30
0.0
 70
   128
 71
     1
 72
     3
 73
    -2
  0
VERTEX
  8
0
 62
     0
  5
228
 10
0.0
 20
0.0
 30
0.0
 70
   128
 71
    -1
 72
     2
 73
     4
  0
SEQEND
  8
0
 62
     0
  5
229
  0
POLYLINE
  8
0
 62
     0
  5
22A
 66
     1
 10
0.0
 20
0.0
 30
0.0
 70
    64
  0
VERTEX
  8
0
  5
22B
 10
3.328998
 20
0.254
 30
0.0
 70
   192
  0
VERTEX
  8
0
  5
22C
 10
3.456001
 20
0.305
 30
0.0
 70
   192
  0
VERTEX
  8
0
  5
22D
 10
3.456001
 20
0.305
 30
4.0
 70
   192
  0
VERTEX
  8
0
  5
22E
 10
3.328998
 20
0.254
 30
4.0
 70
   192
  0
VERTEX
  8
0
 62
     0
  5
22F
 10
0.0
 20
0.0
 30
0.0
 70
   128
 71
     1
 72
     2
 73
    -3
  0
VERTEX
  8
0
 62
     0
  5
230
 10
0.0
 20
0.0
 30
0.0
 70
   128
 71
     3
 72
     4
 73
    -1
  0
SEQEND
  8
0
 62
     0
  5
231
  0
POLYLINE
  8
0
 62
     0
  5
232
 66
     1
 10
0.0
 20
0.0
 30
0.0
 70
    64
  0
VERTEX
  8
0
  5
233
 10
3.456001
 20
0.305
 30
4.0
 70
   192
  0
VERTEX
  8
0
  5
234
 10
3.456001
 20
0.305
 30
0.0
 70
   192
  0
VERTEX
  8
0
  5
235
 10
3.583
 20
0.381
 30
0.0
 70
   192
  0
VERTEX
  8
0
  5
236
 10
3.583
 20
0.381
 30
4.0
 70
   192
  0
VERTEX
  8
0
 62
     0
  5
237
 10
0.0
 20
0.0
 30
0.0
 70
   128
 71
    -1
 72
     3
 73
     2
  0
VERTEX
  8
0
 62
     0
  5
238
 10
0.0
 20
0.0
 30
0.0
 70
   128
 71
    -3
 72
     1
 73
     4
  0
SEQEND
  8
0
 62
     0
  5
239
  0
POLYLINE
  8
0
 62
     0
  5
23A
 66
     1
 10
0.0
 20
0.0
 30
0.0
 70
    64
  0
VERTEX
  8
0
  5
23B
 10
3.583
 20
0.381
 30
4.0
 70
   192
  0
VERTEX
  8
0
  5
23C
 10
3.583
 20
0.381
 30
0.0
 70
   192
  0
VERTEX
  8
0
  5
23D
 10
3.735001
 20
0.457
 30
4.0
 70
   192
  0
VERTEX
  8
0
  5
23E
 10
3.735001
 20
0.457
 30
0.0
 70
   192
  0
VERTEX
  8
0
 62
     0
  5
23F
 10
0.0
 20
0.0
 30
0.0
 70
   128
 71
     1
 72
    -3
 73
     2
  0
VERTEX
  8
0
 62
     0
  5
240
 10
0.0
 20
0.0
 30
0.0
 70
   128
 71
    -2
 72
     3
 73
     4
  0
SEQEND
  8
0
 62
     0
  5
241
  0
POLYLINE
  8
0
 62
     0
  5
242
 66
     1
 10
0.0
 20
0.0
 30
0.0
 70
    64
  0
VERTEX
  8
0
  5
243
 10
3.735001
 20
0.457
 30
4.0
 70
   192
  0
VERTEX
  8
0
  5
244
 10
3.862999
 20
0.534
 30
0.0
 70
   192
  0
VERTEX
  8
0
  5
245
 10
3.862999
 20
0.534
 30
4.0
 70
   192
  0
VERTEX
  8
0
  5
246
 10
3.735001
 20
0.457
 30
0.0
 70
   192
  0
VERTEX
  8
0
 62
     0
  5
247
 10
0.0
 20
0.0
 30
0.0
 70
   128
 71
     1
 72
     3
 73
    -2
  0
VERTEX
  8
0
 62
     0
  5
248
 10
0.0
 20
0.0
 30
0.0
 70
   128
 71
    -1
 72
     2
 73
     4
  0
SEQEND
  8
0
 62
     0
  5
249
  0
POLYLINE
  8
0
 62
     0
  5
24A
 66
     1
 10
0.0
 20
0.0
 30
0.0
 70
    64
  0
VERTEX
  8
0
  5
24B
 10
3.862999
 20
0.534
 30
0.0
 70
   192
  0
VERTEX
  8
0
  5
24C
 10
3.989998
 20
0.61
 30
0.0
 70
   192
  0
VERTEX
  8
0
  5
24D
 10
3.989998
 20
0.61
 30
4.0
 70
   192
  0
VERTEX
  8
0
  5
24E
 10
3.862999
 20
0.534
 30
4.0
 70
   192
  0
VERTEX
  8
0
 62
     0
  5
24F
 10
0.0
 20
0.0
 30
0.0
 70
   128
 71
    -1
 72
     3
 73
     2
  0
VERTEX
  8
0
 62
     0
  5
250
 10
0.0
 20
0.0
 30
0.0
 70
   128
 71
    -3
 72
     1
 73
     4
  0
SEQEND
  8
0
 62
     0
  5
251
  0
POLYLINE
  8
0
 62
     0
  5
252
 66
     1
 10
0.0
 20
0.0
 30
0.0
 70
    64
  0
VERTEX
  8
0
  5
253
 10
3.989998
 20
0.61
 30
4.0
 70
   192
  0
VERTEX
  8
0
  5
254
 10
3.989998
 20
0.61
 30
0.0
 70
   192
  0
VERTEX
  8
0
  5
255
 10
4.091
 20
0.712
 30
0.0
 70
   192
  0
VERTEX
  8
0
  5
256
 10
4.091
 20
0.712
 30
4.0
 70
   192
  0
VERTEX
  8
0
 62
     0
  5
257
 10
0.0
 20
0.0
 30
0.0
 70
   128
 71
    -1
 72
     3
 73
     2
  0
VERTEX
  8
0
 62
     0
  5
258
 10
0.0
 20
0.0
 30
0.0
 70
   128
 71
    -3
 72
     1
 73
     4
  0
SEQEND
  8
0
 62
     0
  5
259
  0
POLYLINE
  8
0
 62
     0
  5
25A
 66
     1
 10
0.0
 20
0.0
 30
0.0
 70
    64
  0
VERTEX
  8
0
  5
25B
 10
4.091
 20
0.712
 30
4.0
 70
   192
  0
VERTEX
  8
0
  5
25C
 10
4.091
 20
0.712
 30
0.0
 70
   192
  0
VERTEX
  8
0
  5
25D
 10
4.217999
 20
0.813
 30
4.0
 70
   192
  0
VERTEX
  8
0
  5
25E
 10
4.217999
 20
0.813
 30
0.0
 70
   192
  0
VERTEX
  8
0
 62
     0
  5
25F
 10
0.0
 20
0.0
 30
0.0
 70
   128
 71
     1
 72
    -3
 73
     2
  0
VERTEX
  8
0
 62
     0
  5
260
 10
0.0
 20
0.0
 30
0.0
 70
   128
 71
    -2
 72
     3
 73
     4
  0
SEQEND
  8
0
 62
     0
  5
261
  0
POLYLINE
  8
0
 62
     0
  5
262
 66
     1
 10
0.0
 20
0.0
 30
0.0
 70
    64
  0
VERTEX
  8
0
  5
263
 10
4.217999
 20
0.813
 30
4.0
 70
   192
  0
VERTEX
  8
0
  5
264
 10
4.422001
 20
1.016
 30
0.0
 70
   192
  0
VERTEX
  8
0
  5
265
 10
4.422001
 20
1.016
 30
4.0
 70
   192
  0
VERTEX
  8
0
  5
266
 10
4.217999
 20
0.813
 30
0.0
 70
   192
  0
VERTEX
  8
0
 62
     0
  5
267
 10
0.0
 20
0.0
 30
0.0
 70
   128
 71
    -1
 72
     2
 73
     3
  0
VERTEX
  8
0
 62
     0
  5
268
 10
0.0
 20
0.0
 30
0.0
 70
   128
 71
     1
 72
     4
 73
    -2
  0
SEQEND
  8
0
 62
     0
  5
269
  0
POLYLINE
  8
0
 62
     0
  5
26A
 66
     1
 10
0.0
 20
0.0
 30
0.0
 70
    64
  0
VERTEX
  8
0
  5
26B
 10
4.422001
 20
1.016
 30
0.0
 70
   192
  0
VERTEX
  8
0
  5
26C
 10
4.625
 20
1.245
 30
0.0
 70
   192
  0
VERTEX
  8
0
  5
26D
 10
4.625
 20
1.245
 30
4.0
 70
   192
  0
VERTEX
  8
0
  5
26E
 10
4.422001
 20
1.016
 30
4.0
 70
   192
  0
VERTEX
  8
0
 62
     0
  5
26F
 10
0.0
 20
0.0
 30
0.0
 70
   128
 71
     1
 72
     2
 73
    -3
  0
VERTEX
  8
0
 62
     0
  5
270
 10
0.0
 20
0.0
 30
0.0
 70
   128
 71
     3
 72
     4
 73
    -1
  0
SEQEND
  8
0
 62
     0
  5
271
  0
POLYLINE
  8
0
 62
     0
  5
272
 66
     1
 10
0.0
 20
0.0
 30
0.0
 70
    64
  0
VERTEX
  8
0
  5
273
 10
4.625
 20
1.245
 30
4.0
 70
   192
  0
VERTEX
  8
0
  5
274
 10
4.625
 20
1.245
 30
0.0
 70
   192
  0
VERTEX
  8
0
  5
275
 10
4.777
 20
1.499
 30
0.0
 70
   192
  0
VERTEX
  8
0
  5
276
 10
4.777
 20
1.499
 30
4.0
 70
   192
  0
VERTEX
  8
0
 62
     0
  5
277
 10
0.0
 20
0.0
 30
0.0
 70
   128
 71
     1
 72
     2
 73
    -3
  0
VERTEX
  8
0
 62
     0
  5
278
 10
0.0
 20
0.0
 30
0.0
 70
   128
 71
     3
 72
     4
 73
    -1
  0
SEQEND
  8
0
 62
     0
  5
279
  0
POLYLINE
  8
0
 62
     0
  5
27A
 66
     1
 10
0.0
 20
0.0
 30
0.0
 70
    64
  0
VERTEX
  8
0
  5
27B
 10
4.777
 20
1.499
 30
4.0
 70
   192
  0
VERTEX
  8
0
  5
27C
 10
4.777
 20
1.499
 30
0.0
 70
   192
  0
VERTEX
  8
0
  5
27D
 10
4.930001
 20
1.779
 30
4.0
 70
   192
  0
VERTEX
  8
0
  5
27E
 10
4.93
 20
1.779
 30
0.0
 70
   192
  0
VERTEX
  8
0
 62
     0
  5
27F
 10
0.0
 20
0.0
 30
0.0
 70
   128
 71
     1
 72
    -2
 73
     3
  0
VERTEX
  8
0
 62
     0
  5
280
 10
0.0
 20
0.0
 30
0.0
 70
   128
 71
     2
 72
     4
 73
    -3
  0
SEQEND
  8
0
 62
     0
  5
281
  0
POLYLINE
  8
0
 62
     0
  5
282
 66
     1
 10
0.0
 20
0.0
 30
0.0
 70
    64
  0
VERTEX
  8
0
  5
283
 10
4.93
 20
1.779
 30
4.0
 70
   192
  0
VERTEX
  8
0
  5
284
 10
5.056999
 20
2.058
 30
0.0
 70
   192
  0
VERTEX
  8
0
  5
285
 10
5.056999
 20
2.058
 30
4.0
 70
   192
  0
VERTEX
  8
0
  5
286
 10
4.93
 20
1.779
 30
0.0
 70
   192
  0
VERTEX
  8
0
 62
     0
  5
287
 10
0.0
 20
0.0
 30
0.0
 70
   128
 71
    -1
 72
     2
 73
     3
  0
VERTEX
  8
0
 62
     0
  5
288
 10
0.0
 20
0.0
 30
0.0
 70
   128
 71
     1
 72
     4
 73
    -2
  0
SEQEND
  8
0
 62
     0
  5
289
  0
POLYLINE
  8
0
 62
     0
  5
28A
 66
     1
 10
0.0
 20
0.0
 30
0.0
 70
    64
  0
VERTEX
  8
0
  5
28B
 10
5.056999
 20
2.058
 30
0.0
 70
   192
  0
VERTEX
  8
0
  5
28C
 10
5.133
 20
2.363
 30
0.0
 70
   192
  0
VERTEX
  8
0
  5
28D
 10
5.133
 20
2.363
 30
4.0
 70
   192
  0
VERTEX
  8
0
  5
28E
 10
5.056999
 20
2.058
 30
4.0
 70
   192
  0
VERTEX
  8
0
 62
     0
  5
28F
 10
0.0
 20
0.0
 30
0.0
 70
   128
 71
     1
 72
     2
 73
    -3
  0
VERTEX
  8
0
 62
     0
  5
290
 10
0.0
 20
0.0
 30
0.0
 70
   128
 71
     3
 72
     4
 73
    -1
  0
SEQEND
  8
0
 62
     0
  5
291
  0
POLYLINE
  8
0
 62
     0
  5
292
 66
     1
 10
0.0
 20
0.0
 30
0.0
 70
    64
  0
VERTEX
  8
0
  5
293
 10
5.132999
 20
2.363
 30
4.0
 70
   192
  0
VERTEX
  8
0
  5
294
 10
5.132999
 20
2.363
 30
0.0
 70
   192
  0
VERTEX
  8
0
  5
295
 10
5.183998
 20
2.693
 30
0.0
 70
   192
  0
VERTEX
  8
0
  5
296
 10
5.183998
 20
2.693
 30
4.0
 70
   192
  0
VERTEX
  8
0
 62
     0
  5
297
 10
0.0
 20
0.0
 30
0.0
 70
   128
 71
     1
 72
     2
 73
    -3
  0
VERTEX
  8
0
 62
     0
  5
298
 10
0.0
 20
0.0
 30
0.0
 70
   128
 71
     3
 72
     4
 73
    -1
  0
SEQEND
  8
0
 62
     0
  5
299
  0
POLYLINE
  8
0
 62
     0
  5
29A
 66
     1
 10
0.0
 20
0.0
 30
0.0
 70
    64
  0
VERTEX
  8
0
  5
29B
 10
5.183998
 20
2.693
 30
4.0
 70
   192
  0
VERTEX
  8
0
  5
29C
 10
5.183998
 20
2.693
 30
0.0
 70
   192
  0
VERTEX
  8
0
  5
29D
 10
5.209
 20
3.024
 30
4.0
 70
   192
  0
VERTEX
  8
0
  5
29E
 10
5.209
 20
3.024
 30
0.0
 70
   192
  0
VERTEX
  8
0
 62
     0
  5
29F
 10
0.0
 20
0.0
 30
0.0
 70
   128
 71
     1
 72
    -2
 73
     3
  0
VERTEX
  8
0
 62
     0
  5
2A0
 10
0.0
 20
0.0
 30
0.0
 70
   128
 71
     2
 72
     4
 73
    -3
  0
SEQEND
  8
0
 62
     0
  5
2A1
  0
POLYLINE
  8
0
 62
     0
  5
2A2
 66
     1
 10
0.0
 20
0.0
 30
0.0
 70
    64
  0
VERTEX
  8
0
  5
2A3
 10
5.209
 20
3.024
 30
4.0
 70
   192
  0
VERTEX
  8
0
  5
2A4
 10
5.183998
 20
3.353
 30
0.0
 70
   192
  0
VERTEX
  8
0
  5
2A5
 10
5.183998
 20
3.353
 30
4.0
 70
   192
  0
VERTEX
  8
0
  5
2A6
 10
5.209
 20
3.024
 30
0.0
 70
   192
  0
VERTEX
  8
0
 62
     0
  5
2A7
 10
0.0
 20
0.0
 30
0.0
 70
   128
 71
    -1
 72
     2
 73
     3
  0
VERTEX
  8
0
 62
     0
  5
2A8
 10
0.0
 20
0.0
 30
0.0
 70
   128
 71
     1
 72
     4
 73
    -2
  0
SEQEND
  8
0
 62
     0
  5
2A9
  0
POLYLINE
  8
0
 62
     0
  5
2AA
 66
     1
 10
0.0
 20
0.0
 30
0.0
 70
    64
  0
VERTEX
  8
0
  5
2AB
 10
5.183998
 20
3.353
 30
0.0
 70
   192
  0
VERTEX
  8
0
  5
2AC
 10
5.158001
 20
3.658
 30
0.0
 70
   192
  0
VERTEX
  8
0
  5
2AD
 10
5.158002
 20
3.658
 30
4.0
 70
   192
  0
VERTEX
  8
0
  5
2AE
 10
5.183998
 20
3.353
 30
4.0
 70
   192
  0
VERTEX
  8
0
 62
     0
  5
2AF
 10
0.0
 20
0.0
 30
0.0
 70
   128
 71
     1
 72
     2
 73
    -3
  0
VERTEX
  8
0
 62
     0
  5
2B0
 10
0.0
 20
0.0
 30
0.0
 70
   128
 71
     3
 72
     4
 73
    -1
  0
SEQEND
  8
0
 62
     0
  5
2B1
  0
POLYLINE
  8
0
 62
     0
  5
2B2
 66
     1
 10
0.0
 20
0.0
 30
0.0
 70
    64
  0
VERTEX
  8
0
  5
2B3
 10
5.158001
 20
3.658
 30
4.0
 70
   192
  0
VERTEX
  8
0
  5
2B4
 10
5.158001
 20
3.658
 30
0.0
 70
   192
  0
VERTEX
  8
0
  5
2B5
 10
5.082001
 20
3.963
 30
0.0
 70
   192
  0
VERTEX
  8
0
  5
2B6
 10
5.082001
 20
3.963
 30
4.0
 70
   192
  0
VERTEX
  8
0
 62
     0
  5
2B7
 10
0.0
 20
0.0
 30
0.0
 70
   128
 71
     1
 72
     2
 73
    -3
  0
VERTEX
  8
0
 62
     0
  5
2B8
 10
0.0
 20
0.0
 30
0.0
 70
   128
 71
     3
 72
     4
 73
    -1
  0
SEQEND
  8
0
 62
     0
  5
2B9
  0
POLYLINE
  8
0
 62
     0
  5
2BA
 66
     1
 10
0.0
 20
0.0
 30
0.0
 70
    64
  0
VERTEX
  8
0
  5
2BB
 10
5.082001
 20
3.963
 30
4.0
 70
   192
  0
VERTEX
  8
0
  5
2BC
 10
5.082001
 20
3.963
 30
0.0
 70
   192
  0
VERTEX
  8
0
  5
2BD
 10
4.980999
 20
4.268
 30
4.0
 70
   192
  0
VERTEX
  8
0
  5
2BE
 10
4.980999
 20
4.268
 30
0.0
 70
   192
  0
VERTEX
  8
0
 62
     0
  5
2BF
 10
0.0
 20
0.0
 30
0.0
 70
   128
 71
     1
 72
    -2
 73
     3
  0
VERTEX
  8
0
 62
     0
  5
2C0
 10
0.0
 20
0.0
 30
0.0
 70
   128
 71
     2
 72
     4
 73
    -3
  0
SEQEND
  8
0
 62
     0
  5
2C1
  0
POLYLINE
  8
0
 62
     0
  5
2C2
 66
     1
 10
0.0
 20
0.0
 30
0.0
 70
    64
  0
VERTEX
  8
0
  5
2C3
 10
4.980999
 20
4.268
 30
4.0
 70
   192
  0
VERTEX
  8
0
  5
2C4
 10
4.854
 20
4.547
 30
0.0
 70
   192
  0
VERTEX
  8
0
  5
2C5
 10
4.854
 20
4.547
 30
4.0
 70
   192
  0
VERTEX
  8
0
  5
2C6
 10
4.980999
 20
4.268
 30
0.0
 70
   192
  0
VERTEX
  8
0
 62
     0
  5
2C7
 10
0.0
 20
0.0
 30
0.0
 70
   128
 71
    -1
 72
     2
 73
     3
  0
VERTEX
  8
0
 62
     0
  5
2C8
 10
0.0
 20
0.0
 30
0.0
 70
   128
 71
     1
 72
     4
 73
    -2
  0
SEQEND
  8
0
 62
     0
  5
2C9
  0
POLYLINE
  8
0
 62
     0
  5
2CA
 66
     1
 10
0.0
 20
0.0
 30
0.0
 70
    64
  0
VERTEX
  8
0
  5
2CB
 10
4.854
 20
4.547
 30
0.0
 70
   192
  0
VERTEX
  8
0
  5
2CC
 10
4.701
 20
4.802
 30
0.0
 70
   192
  0
VERTEX
  8
0
  5
2CD
 10
4.701
 20
4.802
 30
4.0
 70
   192
  0
VERTEX
  8
0
  5
2CE
 10
4.854
 20
4.547
 30
4.0
 70
   192
  0
VERTEX
  8
0
 62
     0
  5
2CF
 10
0.0
 20
0.0
 30
0.0
 70
   128
 71
     1
 72
     2
 73
    -3
  0
VERTEX
  8
0
 62
     0
  5
2D0
 10
0.0
 20
0.0
 30
0.0
 70
   128
 71
     3
 72
     4
 73
    -1
  0
SEQEND
  8
0
 62
     0
  5
2D1
  0
POLYLINE
  8
0
 62
     0
  5
2D2
 66
     1
 10
0.0
 20
0.0
 30
0.0
 70
    64
  0
VERTEX
  8
0
  5
2D3
 10
4.701
 20
4.802
 30
4.0
 70
   192
  0
VERTEX
  8
0
  5
2D4
 10
4.701
 20
4.802
 30
0.0
 70
   192
  0
VERTEX
  8
0
  5
2D5
 10
4.522998
 20
5.03
 30
0.0
 70
   192
  0
VERTEX
  8
0
  5
2D6
 10
4.522999
 20
5.03
 30
4.0
 70
   192
  0
VERTEX
  8
0
 62
     0
  5
2D7
 10
0.0
 20
0.0
 30
0.0
 70
   128
 71
     1
 72
     2
 73
    -3
  0
VERTEX
  8
0
 62
     0
  5
2D8
 10
0.0
 20
0.0
 30
0.0
 70
   128
 71
     3
 72
     4
 73
    -1
  0
SEQEND
  8
0
 62
     0
  5
2D9
  0
POLYLINE
  8
0
 62
     0
  5
2DA
 66
     1
 10
0.0
 20
0.0
 30
0.0
 70
    64
  0
VERTEX
  8
0
  5
2DB
 10
4.522999
 20
5.03
 30
4.0
 70
   192
  0
VERTEX
  8
0
  5
2DC
 10
4.522999
 20
5.03
 30
0.0
 70
   192
  0
VERTEX
  8
0
  5
2DD
 10
4.32
 20
5.259
 30
4.0
 70
   192
  0
VERTEX
  8
0
  5
2DE
 10
4.32
 20
5.259
 30
0.0
 70
   192
  0
VERTEX
  8
0
 62
     0
  5
2DF
 10
0.0
 20
0.0
 30
0.0
 70
   128
 71
     1
 72
    -2
 73
     3
  0
VERTEX
  8
0
 62
     0
  5
2E0
 10
0.0
 20
0.0
 30
0.0
 70
   128
 71
     2
 72
     4
 73
    -3
  0
SEQEND
  8
0
 62
     0
  5
2E1
  0
POLYLINE
  8
0
 62
     0
  5
2E2
 66
     1
 10
0.0
 20
0.0
 30
0.0
 70
    64
  0
VERTEX
  8
0
  5
2E3
 10
4.32
 20
5.259
 30
4.0
 70
   192
  0
VERTEX
  8
0
  5
2E4
 10
4.193001
 20
5.361
 30
0.0
 70
   192
  0
VERTEX
  8
0
  5
2E5
 10
4.193001
 20
5.361
 30
4.0
 70
   192
  0
VERTEX
  8
0
  5
2E6
 10
4.32
 20
5.259
 30
0.0
 70
   192
  0
VERTEX
  8
0
 62
     0
  5
2E7
 10
0.0
 20
0.0
 30
0.0
 70
   128
 71
     1
 72
     3
 73
    -2
  0
VERTEX
  8
0
 62
     0
  5
2E8
 10
0.0
 20
0.0
 30
0.0
 70
   128
 71
    -1
 72
     2
 73
     4
  0
SEQEND
  8
0
 62
     0
  5
2E9
  0
POLYLINE
  8
0
 62
     0
  5
2EA
 66
     1
 10
0.0
 20
0.0
 30
0.0
 70
    64
  0
VERTEX
  8
0
  5
2EB
 10
4.193001
 20
5.361
 30
0.0
 70
   192
  0
VERTEX
  8
0
  5
2EC
 10
4.091
 20
5.462
 30
0.0
 70
   192
  0
VERTEX
  8
0
  5
2ED
 10
4.091
 20
5.462
 30
4.0
 70
   192
  0
VERTEX
  8
0
  5
2EE
 10
4.193001
 20
5.361
 30
4.0
 70
   192
  0
VERTEX
  8
0
 62
     0
  5
2EF
 10
0.0
 20
0.0
 30
0.0
 70
   128
 71
    -1
 72
     3
 73
     2
  0
VERTEX
  8
0
 62
     0
  5
2F0
 10
0.0
 20
0.0
 30
0.0
 70
   128
 71
    -3
 72
     1
 73
     4
  0
SEQEND
  8
0
 62
     0
  5
2F1
  0
POLYLINE
  8
0
 62
     0
  5
2F2
 66
     1
 10
0.0
 20
0.0
 30
0.0
 70
    64
  0
VERTEX
  8
0
  5
2F3
 10
4.091
 20
5.462
 30
4.0
 70
   192
  0
VERTEX
  8
0
  5
2F4
 10
4.091
 20
5.462
 30
0.0
 70
   192
  0
VERTEX
  8
0
  5
2F5
 10
3.964001
 20
5.564
 30
0.0
 70
   192
  0
VERTEX
  8
0
  5
2F6
 10
3.964001
 20
5.564
 30
4.0
 70
   192
  0
VERTEX
  8
0
 62
     0
  5
2F7
 10
0.0
 20
0.0
 30
0.0
 70
   128
 71
     1
 72
     2
 73
    -3
  0
VERTEX
  8
0
 62
     0
  5
2F8
 10
0.0
 20
0.0
 30
0.0
 70
   128
 71
     3
 72
     4
 73
    -1
  0
SEQEND
  8
0
 62
     0
  5
2F9
  0
POLYLINE
  8
0
 62
     0
  5
2FA
 66
     1
 10
0.0
 20
0.0
 30
0.0
 70
    64
  0
VERTEX
  8
0
  5
2FB
 10
3.964001
 20
5.564
 30
4.0
 70
   192
  0
VERTEX
  8
0
  5
2FC
 10
3.964001
 20
5.564
 30
0.0
 70
   192
  0
VERTEX
  8
0
  5
2FD
 10
3.812
 20
5.665
 30
4.0
 70
   192
  0
VERTEX
  8
0
  5
2FE
 10
3.812
 20
5.665
 30
0.0
 70
   192
  0
VERTEX
  8
0
 62
     0
  5
2FF
 10
0.0
 20
0.0
 30
0.0
 70
   128
 71
     1
 72
    -2
 73
     3
  0
VERTEX
  8
0
 62
     0
  5
300
 10
0.0
 20
0.0
 30
0.0
 70
   128
 71
     2
 72
     4
 73
    -3
  0
SEQEND
  8
0
 62
     0
  5
301
  0
POLYLINE
  8
0
 62
     0
  5
302
 66
     1
 10
0.0
 20
0.0
 30
0.0
 70
    64
  0
VERTEX
  8
0
  5
303
 10
3.812
 20
5.665
 30
4.0
 70
   192
  0
VERTEX
  8
0
  5
304
 10
3.685001
 20
5.742
 30
0.0
 70
   192
  0
VERTEX
  8
0
  5
305
 10
3.685002
 20
5.742
 30
4.0
 70
   192
  0
VERTEX
  8
0
  5
306
 10
3.812
 20
5.665
 30
0.0
 70
   192
  0
VERTEX
  8
0
 62
     0
  5
307
 10
0.0
 20
0.0
 30
0.0
 70
   128
 71
    -1
 72
     2
 73
     3
  0
VERTEX
  8
0
 62
     0
  5
308
 10
0.0
 20
0.0
 30
0.0
 70
   128
 71
     1
 72
     4
 73
    -2
  0
SEQEND
  8
0
 62
     0
  5
309
  0
POLYLINE
  8
0
 62
     0
  5
30A
 66
     1
 10
0.0
 20
0.0
 30
0.0
 70
    64
  0
VERTEX
  8
0
  5
30B
 10
3.685001
 20
5.742
 30
0.0
 70
   192
  0
VERTEX
  8
0
  5
30C
 10
3.532001
 20
5.818
 30
0.0
 70
   192
  0
VERTEX
  8
0
  5
30D
 10
3.532001
 20
5.818
 30
4.0
 70
   192
  0
VERTEX
  8
0
  5
30E
 10
3.685001
 20
5.742
 30
4.0
 70
   192
  0
VERTEX
  8
0
 62
     0
  5
30F
 10
0.0
 20
0.0
 30
0.0
 70
   128
 71
    -1
 72
     3
 73
     2
  0
VERTEX
  8
0
 62
     0
  5
310
 10
0.0
 20
0.0
 30
0.0
 70
   128
 71
    -3
 72
     1
 73
     4
  0
SEQEND
  8
0
 62
     0
  5
311
  0
POLYLINE
  8
0
 62
     0
  5
312
 66
     1
 10
0.0
 20
0.0
 30
0.0
 70
    64
  0
VERTEX
  8
0
  5
313
 10
3.532001
 20
5.818
 30
4.0
 70
   192
  0
VERTEX
  8
0
  5
314
 10
3.532001
 20
5.818
 30
0.0
 70
   192
  0
VERTEX
  8
0
  5
315
 10
3.380001
 20
5.894
 30
0.0
 70
   192
  0
VERTEX
  8
0
  5
316
 10
3.380001
 20
5.894
 30
4.0
 70
   192
  0
VERTEX
  8
0
 62
     0
  5
317
 10
0.0
 20
0.0
 30
0.0
 70
   128
 71
    -1
 72
     3
 73
     2
  0
VERTEX
  8
0
 62
     0
  5
318
 10
0.0
 20
0.0
 30
0.0
 70
   128
 71
    -3
 72
     1
 73
     4
  0
SEQEND
  8
0
 62
     0
  5
319
  0
POLYLINE
  8
0
 62
     0
  5
31A
 66
     1
 10
0.0
 20
0.0
 30
0.0
 70
    64
  0
VERTEX
  8
0
  5
31B
 10
3.380001
 20
5.894
 30
4.0
 70
   192
  0
VERTEX
  8
0
  5
31C
 10
3.380001
 20
5.894
 30
0.0
 70
   192
  0
VERTEX
  8
0
  5
31D
 10
3.023998
 20
5.996001
 30
4.0
 70
   192
  0
VERTEX
  8
0
  5
31E
 10
3.023998
 20
5.996
 30
0.0
 70
   192
  0
VERTEX
  8
0
 62
     0
  5
31F
 10
0.0
 20
0.0
 30
0.0
 70
   128
 71
     1
 72
    -3
 73
     2
  0
VERTEX
  8
0
 62
     0
  5
320
 10
0.0
 20
0.0
 30
0.0
 70
   128
 71
    -2
 72
     3
 73
     4
  0
SEQEND
  8
0
 62
     0
  5
321
  0
POLYLINE
  8
0
 62
     0
  5
322
 66
     1
 10
0.0
 20
0.0
 30
0.0
 70
    64
  0
VERTEX
  8
0
  5
323
 10
3.023998
 20
5.996
 30
4.0
 70
   192
  0
VERTEX
  8
0
  5
324
 10
2.871998
 20
6.072
 30
0.0
 70
   192
  0
VERTEX
  8
0
  5
325
 10
2.871998
 20
6.072001
 30
4.0
 70
   192
  0
VERTEX
  8
0
  5
326
 10
3.023998
 20
5.996
 30
0.0
 70
   192
  0
VERTEX
  8
0
 62
     0
  5
327
 10
0.0
 20
0.0
 30
0.0
 70
   128
 71
     1
 72
     3
 73
    -2
  0
VERTEX
  8
0
 62
     0
  5
328
 10
0.0
 20
0.0
 30
0.0
 70
   128
 71
    -1
 72
     2
 73
     4
  0
SEQEND
  8
0
 62
     0
  5
329
  0
POLYLINE
  8
0
 62
     0
  5
32A
 66
     1
 10
0.0
 20
0.0
 30
0.0
 70
    64
  0
VERTEX
  8
0
  5
32B
 10
2.871998
 20
6.072
 30
0.0
 70
   192
  0
VERTEX
  8
0
  5
32C
 10
2.667999
 20
6.097
 30
0.0
 70
   192
  0
VERTEX
  8
0
  5
32D
 10
2.667999
 20
6.097
 30
4.0
 70
   192
  0
VERTEX
  8
0
  5
32E
 10
2.871998
 20
6.072
 30
4.0
 70
   192
  0
VERTEX
  8
0
 62
     0
  5
32F
 10
0.0
 20
0.0
 30
0.0
 70
   128
 71
    -1
 72
     3
 73
     2
  0
VERTEX
  8
0
 62
     0
  5
330
 10
0.0
 20
0.0
 30
0.0
 70
   128
 71
    -3
 72
     1
 73
     4
  0
SEQEND
  8
0
 62
     0
  5
331
  0
POLYLINE
  8
0
 62
     0
  5
332
 66
     1
 10
0.0
 20
0.0
 30
0.0
 70
    64
  0
VERTEX
  8
0
  5
333
 10
2.667999
 20
6.097
 30
4.0
 70
   192
  0
VERTEX
  8
0
  5
334
 10
2.667999
 20
6.097
 30
0.0
 70
   192
  0
VERTEX
  8
0
  5
335
 10
2.489998
 20
6.148
 30
0.0
 70
   192
  0
VERTEX
  8
0
  5
336
 10
2.489998
 20
6.148
 30
4.0
 70
   192
  0
VERTEX
  8
0
 62
     0
  5
337
 10
0.0
 20
0.0
 30
0.0
 70
   128
 71
    -1
 72
     3
 73
     2
  0
VERTEX
  8
0
 62
     0
  5
338
 10
0.0
 20
0.0
 30
0.0
 70
   128
 71
    -3
 72
     1
 73
     4
  0
SEQEND
  8
0
 62
     0
  5
339
  0
POLYLINE
  8
0
 62
     0
  5
33A
 66
     1
 10
0.0
 20
0.0
 30
0.0
 70
    64
  0
VERTEX
  8
0
  5
33B
 10
2.489998
 20
6.148
 30
4.0
 70
   192
  0
VERTEX
  8
0
  5
33C
 10
2.489998
 20
6.148
 30
0.0
 70
   192
  0
VERTEX
  8
0
  5
33D
 10
2.286999
 20
6.174
 30
4.0
 70
   192
  0
VERTEX
  8
0
  5
33E
 10
2.286999
 20
6.173999
 30
0.0
 70
   192
  0
VERTEX
  8
0
 62
     0
  5
33F
 10
0.0
 20
0.0
 30
0.0
 70
   128
 71
     1
 72
    -2
 73
     3
  0
VERTEX
  8
0
 62
     0
  5
340
 10
0.0
 20
0.0
 30
0.0
 70
   128
 71
     2
 72
     4
 73
    -3
  0
SEQEND
  8
0
 62
     0
  5
341
  0
POLYLINE
  8
0
 62
     0
  5
342
 66
     1
 10
0.0
 20
0.0
 30
0.0
 70
    64
  0
VERTEX
  8
0
  5
343
 10
2.286999
 20
6.174
 30
4.0
 70
   192
  0
VERTEX
  8
0
  5
344
 10
2.084
 20
6.174
 30
0.0
 70
   192
  0
VERTEX
  8
0
  5
345
 10
2.084
 20
6.174
 30
4.0
 70
   192
  0
VERTEX
  8
0
  5
346
 10
2.286999
 20
6.174
 30
0.0
 70
   192
  0
VERTEX
  8
0
 62
     0
  5
347
 10
0.0
 20
0.0
 30
0.0
 70
   128
 71
     1
 72
     3
 73
    -2
  0
VERTEX
  8
0
 62
     0
  5
348
 10
0.0
 20
0.0
 30
0.0
 70
   128
 71
    -1
 72
     2
 73
     4
  0
SEQEND
  8
0
 62
     0
  5
349
  0
POLYLINE
  8
0
 62
     0
  5
34A
 66
     1
 10
0.0
 20
0.0
 30
0.0
 70
    64
  0
VERTEX
  8
0
  5
34B
 10
2.084
 20
6.174
 30
0.0
 70
   192
  0
VERTEX
  8
0
  5
34C
 10
1.881
 20
6.199001
 30
0.0
 70
   192
  0
VERTEX
  8
0
  5
34D
 10
1.881
 20
6.199001
 30
4.0
 70
   192
  0
VERTEX
  8
0
  5
34E
 10
2.084
 20
6.174
 30
4.0
 70
   192
  0
VERTEX
  8
0
 62
     0
  5
34F
 10
0.0
 20
0.0
 30
0.0
 70
   128
 71
    -1
 72
     3
 73
     2
  0
VERTEX
  8
0
 62
     0
  5
350
 10
0.0
 20
0.0
 30
0.0
 70
   128
 71
    -3
 72
     1
 73
     4
  0
SEQEND
  8
0
 62
     0
  5
351
  0
POLYLINE
  8
0
 62
     0
  5
352
 66
     1
 10
0.0
 20
0.0
 30
0.0
 70
    64
  0
VERTEX
  8
0
  5
353
 10
1.881
 20
6.199
 30
4.0
 70
   192
  0
VERTEX
  8
0
  5
354
 10
1.881
 20
6.199
 30
0.0
 70
   192
  0
VERTEX
  8
0
  5
355
 10
0.0
 20
6.199
 30
0.0
 70
   192
  0
VERTEX
  8
0
  5
356
 10
0.0
 20
6.199
 30
4.0
 70
   192
  0
VERTEX
  8
0
 62
     0
  5
357
 10
0.0
 20
0.0
 30
0.0
 70
   128
 71
     1
 72
     2
 73
    -3
  0
VERTEX
  8
0
 62
     0
  5
358
 10
0.0
 20
0.0
 30
0.0
 70
   128
 71
     3
 72
     4
 73
    -1
  0
SEQEND
  8
0
 62
     0
  5
359
  0
POLYLINE
  8
0
 62
     0
  5
35A
 66
     1
 10
0.0
 20
0.0
 30
0.0
 70
    64
  0
VERTEX
  8
0
  5
35B
 10
3.583
 20
0.381
 30
4.0
 70
   192
  0
VERTEX
  8
0
  5
35C
 10
4.980999
 20
4.268
 30
4.0
 70
   192
  0
VERTEX
  8
0
  5
35D
 10
2.286999
 20
6.174
 30
4.0
 70
   192
  0
VERTEX
  8
0
  5
35E
 10
3.812
 20
5.665
 30
4.0
 70
   192
  0
VERTEX
  8
0
  5
35F
 10
4.93
 20
1.779
 30
4.0
 70
   192
  0
VERTEX
  8
0
  5
360
 10
2.591999
 20
0.051
 30
4.0
 70
   192
  0
VERTEX
  8
0
  5
361
 10
3.023998
 20
5.996001
 30
4.0
 70
   192
  0
VERTEX
  8
0
  5
362
 10
4.32
 20
5.259
 30
4.0
 70
   192
  0
VERTEX
  8
0
  5
363
 10
5.209
 20
3.024
 30
4.0
 70
   192
  0
VERTEX
  8
0
  5
364
 10
4.091
 20
0.712
 30
4.0
 70
   192
  0
VERTEX
  8
0
  5
365
 10
3.023998
 20
0.152
 30
4.0
 70
   192
  0
VERTEX
  8
0
  5
366
 10
0.0
 20
0.0
 30
4.0
 70
   192
  0
VERTEX
  8
0
  5
367
 10
2.084
 20
6.174
 30
4.0
 70
   192
  0
VERTEX
  8
0
  5
368
 10
2.667999
 20
6.097
 30
4.0
 70
   192
  0
VERTEX
  8
0
  5
369
 10
3.532001
 20
5.818
 30
4.0
 70
   192
  0
VERTEX
  8
0
  5
36A
 10
4.193001
 20
5.361
 30
4.0
 70
   192
  0
VERTEX
  8
0
  5
36B
 10
4.701
 20
4.802
 30
4.0
 70
   192
  0
VERTEX
  8
0
  5
36C
 10
5.158001
 20
3.658
 30
4.0
 70
   192
  0
VERTEX
  8
0
  5
36D
 10
5.133
 20
2.363
 30
4.0
 70
   192
  0
VERTEX
  8
0
  5
36E
 10
4.625
 20
1.245
 30
4.0
 70
   192
  0
VERTEX
  8
0
  5
36F
 10
3.989998
 20
0.61
 30
4.0
 70
   192
  0
VERTEX
  8
0
  5
370
 10
3.456001
 20
0.305
 30
4.0
 70
   192
  0
VERTEX
  8
0
  5
371
 10
2.896999
 20
0.102
 30
4.0
 70
   192
  0
VERTEX
  8
0
  5
372
 10
2.286999
 20
0.0
 30
4.0
 70
   192
  0
VERTEX
  8
0
  5
373
 10
0.0
 20
6.199
 30
4.0
 70
   192
  0
VERTEX
  8
0
  5
374
 10
1.881
 20
6.199001
 30
4.0
 70
   192
  0
VERTEX
  8
0
  5
375
 10
2.489998
 20
6.148
 30
4.0
 70
   192
  0
VERTEX
  8
0
  5
376
 10
2.871998
 20
6.072
 30
4.0
 70
   192
  0
VERTEX
  8
0
  5
377
 10
3.380001
 20
5.894
 30
4.0
 70
   192
  0
VERTEX
  8
0
  5
378
 10
3.685001
 20
5.742
 30
4.0
 70
   192
  0
VERTEX
  8
0
  5
379
 10
3.964001
 20
5.564
 30
4.0
 70
   192
  0
VERTEX
  8
0
  5
37A
 10
4.091
 20
5.462
 30
4.0
 70
   192
  0
VERTEX
  8
0
  5
37B
 10
4.522999
 20
5.03
 30
4.0
 70
   192
  0
VERTEX
  8
0
  5
37C
 10
4.854
 20
4.547
 30
4.0
 70
   192
  0
VERTEX
  8
0
  5
37D
 10
5.082001
 20
3.963
 30
4.0
 70
   192
  0
VERTEX
  8
0
  5
37E
 10
5.183998
 20
3.353
 30
4.0
 70
   192
  0
VERTEX
  8
0
  5
37F
 10
5.183998
 20
2.693
 30
4.0
 70
   192
  0
VERTEX
  8
0
  5
380
 10
5.056999
 20
2.058
 30
4.0
 70
   192
  0
VERTEX
  8
0
  5
381
 10
4.777
 20
1.499
 30
4.0
 70
   192
  0
VERTEX
  8
0
  5
382
 10
4.422001
 20
1.016
 30
4.0
 70
   192
  0
VERTEX
  8
0
  5
383
 10
4.217999
 20
0.813
 30
4.0
 70
   192
  0
VERTEX
  8
0
  5
384
 10
3.862999
 20
0.534
 30
4.0
 70
   192
  0
VERTEX
  8
0
  5
385
 10
3.735001
 20
0.457
 30
4.0
 70
   192
  0
VERTEX
  8
0
  5
386
 10
3.175999
 20
0.203
 30
4.0
 70
   192
  0
VERTEX
  8
0
  5
387
 10
3.328998
 20
0.254
 30
4.0
 70
   192
  0
VERTEX
  8
0
  5
388
 10
2.743999
 20
0.076
 30
4.0
 70
   192
  0
VERTEX
  8
0
  5
389
 10
2.439999
 20
0.025
 30
4.0
 70
   192
  0
VERTEX
  8
0
 62
     0
  5
38A
 10
0.0
 20
0.0
 30
0.0
 70
   128
 71
    -1
 72
    -2
 73
    -3
  0
VERTEX
  8
0
 62
     0
  5
38B
 10
0.0
 20
0.0
 30
0.0
 70
   128
 71
    -2
 72
    -4
 73
    -3
  0
VERTEX
  8
0
 62
     0
  5
38C
 10
0.0
 20
0.0
 30
0.0
 70
   128
 71
    -1
 72
    -5
 73
    -2
  0
VERTEX
  8
0
 62
     0
  5
38D
 10
0.0
 20
0.0
 30
0.0
 70
   128
 71
    -3
 72
    -6
 73
    -1
  0
VERTEX
  8
0
 62
     0
  5
38E
 10
0.0
 20
0.0
 30
0.0
 70
   128
 71
    -4
 72
    -7
 73
    -3
  0
VERTEX
  8
0
 62
     0
  5
38F
 10
0.0
 20
0.0
 30
0.0
 70
   128
 71
    -2
 72
    -8
 73
    -4
  0
VERTEX
  8
0
 62
     0
  5
390
 10
0.0
 20
0.0
 30
0.0
 70
   128
 71
    -5
 72
    -9
 73
    -2
  0
VERTEX
  8
0
 62
     0
  5
391
 10
0.0
 20
0.0
 30
0.0
 70
   128
 71
    -1
 72
   -10
 73
    -5
  0
VERTEX
  8
0
 62
     0
  5
392
 10
0.0
 20
0.0
 30
0.0
 70
   128
 71
    -6
 72
   -11
 73
    -1
  0
VERTEX
  8
0
 62
     0
  5
393
 10
0.0
 20
0.0
 30
0.0
 70
   128
 71
    -3
 72
   -12
 73
    -6
  0
VERTEX
  8
0
 62
     0
  5
394
 10
0.0
 20
0.0
 30
0.0
 70
   128
 71
     3
 72
   -13
 73
   -12
  0
VERTEX
  8
0
 62
     0
  5
395
 10
0.0
 20
0.0
 30
0.0
 70
   128
 71
    -7
 72
   -14
 73
    -3
  0
VERTEX
  8
0
 62
     0
  5
396
 10
0.0
 20
0.0
 30
0.0
 70
   128
 71
    -4
 72
   -15
 73
    -7
  0
VERTEX
  8
0
 62
     0
  5
397
 10
0.0
 20
0.0
 30
0.0
 70
   128
 71
     8
 72
   -16
 73
    -4
  0
VERTEX
  8
0
 62
     0
  5
398
 10
0.0
 20
0.0
 30
0.0
 70
   128
 71
    -2
 72
   -17
 73
    -8
  0
VERTEX
  8
0
 62
     0
  5
399
 10
0.0
 20
0.0
 30
0.0
 70
   128
 71
    -9
 72
   -18
 73
    -2
  0
VERTEX
  8
0
 62
     0
  5
39A
 10
0.0
 20
0.0
 30
0.0
 70
   128
 71
    -5
 72
   -19
 73
    -9
  0
VERTEX
  8
0
 62
     0
  5
39B
 10
0.0
 20
0.0
 30
0.0
 70
   128
 71
   -10
 72
   -20
 73
    -5
  0
VERTEX
  8
0
 62
     0
  5
39C
 10
0.0
 20
0.0
 30
0.0
 70
   128
 71
    -1
 72
    21
 73
   -10
  0
VERTEX
  8
0
 62
     0
  5
39D
 10
0.0
 20
0.0
 30
0.0
 70
   128
 71
   -11
 72
    22
 73
    -1
  0
VERTEX
  8
0
 62
     0
  5
39E
 10
0.0
 20
0.0
 30
0.0
 70
   128
 71
    -6
 72
    23
 73
   -11
  0
VERTEX
  8
0
 62
     0
  5
39F
 10
0.0
 20
0.0
 30
0.0
 70
   128
 71
    12
 72
   -24
 73
    -6
  0
VERTEX
  8
0
 62
     0
  5
3A0
 10
0.0
 20
0.0
 30
0.0
 70
   128
 71
   -13
 72
    25
 73
   -12
  0
VERTEX
  8
0
 62
     0
  5
3A1
 10
0.0
 20
0.0
 30
0.0
 70
   128
 71
    13
 72
    26
 73
   -25
  0
VERTEX
  8
0
 62
     0
  5
3A2
 10
0.0
 20
0.0
 30
0.0
 70
   128
 71
    14
 72
    27
 73
    -3
  0
VERTEX
  8
0
 62
     0
  5
3A3
 10
0.0
 20
0.0
 30
0.0
 70
   128
 71
     7
 72
    28
 73
   -14
  0
VERTEX
  8
0
 62
     0
  5
3A4
 10
0.0
 20
0.0
 30
0.0
 70
   128
 71
    15
 72
    29
 73
    -7
  0
VERTEX
  8
0
 62
     0
  5
3A5
 10
0.0
 20
0.0
 30
0.0
 70
   128
 71
     4
 72
    30
 73
   -15
  0
VERTEX
  8
0
 62
     0
  5
3A6
 10
0.0
 20
0.0
 30
0.0
 70
   128
 71
   -16
 72
    31
 73
    -4
  0
VERTEX
  8
0
 62
     0
  5
3A7
 10
0.0
 20
0.0
 30
0.0
 70
   128
 71
    16
 72
    32
 73
   -31
  0
VERTEX
  8
0
 62
     0
  5
3A8
 10
0.0
 20
0.0
 30
0.0
 70
   128
 71
    17
 72
    33
 73
    -8
  0
VERTEX
  8
0
 62
     0
  5
3A9
 10
0.0
 20
0.0
 30
0.0
 70
   128
 71
     2
 72
    34
 73
   -17
  0
VERTEX
  8
0
 62
     0
  5
3AA
 10
0.0
 20
0.0
 30
0.0
 70
   128
 71
    18
 72
    35
 73
    -2
  0
VERTEX
  8
0
 62
     0
  5
3AB
 10
0.0
 20
0.0
 30
0.0
 70
   128
 71
     9
 72
    36
 73
   -18
  0
VERTEX
  8
0
 62
     0
  5
3AC
 10
0.0
 20
0.0
 30
0.0
 70
   128
 71
    19
 72
    37
 73
    -9
  0
VERTEX
  8
0
 62
     0
  5
3AD
 10
0.0
 20
0.0
 30
0.0
 70
   128
 71
     5
 72
    38
 73
   -19
  0
VERTEX
  8
0
 62
     0
  5
3AE
 10
0.0
 20
0.0
 30
0.0
 70
   128
 71
    20
 72
    39
 73
    -5
  0
VERTEX
  8
0
 62
     0
  5
3AF
 10
0.0
 20
0.0
 30
0.0
 70
   128
 71
   -10
 72
    40
 73
   -20
  0
VERTEX
  8
0
 62
     0
  5
3B0
 10
0.0
 20
0.0
 30
0.0
 70
   128
 71
    10
 72
    41
 73
   -40
  0
VERTEX
  8
0
 62
     0
  5
3B1
 10
0.0
 20
0.0
 30
0.0
 70
   128
 71
    -1
 72
    42
 73
   -21
  0
VERTEX
  8
0
 62
     0
  5
3B2
 10
0.0
 20
0.0
 30
0.0
 70
   128
 71
     1
 72
    43
 73
   -42
  0
VERTEX
  8
0
 62
     0
  5
3B3
 10
0.0
 20
0.0
 30
0.0
 70
   128
 71
    11
 72
   -44
 73
   -22
  0
VERTEX
  8
0
 62
     0
  5
3B4
 10
0.0
 20
0.0
 30
0.0
 70
   128
 71
    44
 72
    45
 73
   -22
  0
VERTEX
  8
0
 62
     0
  5
3B5
 10
0.0
 20
0.0
 30
0.0
 70
   128
 71
     6
 72
    46
 73
   -23
  0
VERTEX
  8
0
 62
     0
  5
3B6
 10
0.0
 20
0.0
 30
0.0
 70
   128
 71
    24
 72
    47
 73
    -6
  0
SEQEND
  8
0
 62
     0
  5
3B7
  0
POLYLINE
  8
0
 62
     0
  5
3B8
 66
     1
 10
0.0
 20
0.0
 30
0.0
 70
    64
  0
VERTEX
  8
0
  5
3B9
 10
3.964001
 20
5.564
 30
0.0
 70
   192
  0
VERTEX
  8
0
  5
3BA
 10
4.777
 20
1.499
 30
0.0
 70
   192
  0
VERTEX
  8
0
  5
3BB
 10
2.591999
 20
0.051
 30
0.0
 70
   192
  0
VERTEX
  8
0
  5
3BC
 10
3.583
 20
0.381
 30
0.0
 70
   192
  0
VERTEX
  8
0
  5
3BD
 10
5.082001
 20
3.963
 30
0.0
 70
   192
  0
VERTEX
  8
0
  5
3BE
 10
2.489998
 20
6.148
 30
0.0
 70
   192
  0
VERTEX
  8
0
  5
3BF
 10
3.175999
 20
0.203
 30
0.0
 70
   192
  0
VERTEX
  8
0
  5
3C0
 10
4.091
 20
0.712
 30
0.0
 70
   192
  0
VERTEX
  8
0
  5
3C1
 10
5.183998
 20
2.693
 30
0.0
 70
   192
  0
VERTEX
  8
0
  5
3C2
 10
4.522999
 20
5.03
 30
0.0
 70
   192
  0
VERTEX
  8
0
  5
3C3
 10
2.667999
 20
6.097
 30
0.0
 70
   192
  0
VERTEX
  8
0
  5
3C4
 10
2.084
 20
6.174
 30
0.0
 70
   192
  0
VERTEX
  8
0
  5
3C5
 10
0.0
 20
0.0
 30
0.0
 70
   192
  0
VERTEX
  8
0
  5
3C6
 10
2.743999
 20
0.076
 30
0.0
 70
   192
  0
VERTEX
  8
0
  5
3C7
 10
3.328998
 20
0.254
 30
0.0
 70
   192
  0
VERTEX
  8
0
  5
3C8
 10
3.862999
 20
0.534
 30
0.0
 70
   192
  0
VERTEX
  8
0
  5
3C9
 10
4.422001
 20
1.016
 30
0.0
 70
   192
  0
VERTEX
  8
0
  5
3CA
 10
5.056999
 20
2.058
 30
0.0
 70
   192
  0
VERTEX
  8
0
  5
3CB
 10
5.183998
 20
3.353
 30
0.0
 70
   192
  0
VERTEX
  8
0
  5
3CC
 10
4.854
 20
4.547
 30
0.0
 70
   192
  0
VERTEX
  8
0
  5
3CD
 10
4.193001
 20
5.361
 30
0.0
 70
   192
  0
VERTEX
  8
0
  5
3CE
 10
3.532001
 20
5.818
 30
0.0
 70
   192
  0
VERTEX
  8
0
  5
3CF
 10
3.380001
 20
5.894
 30
0.0
 70
   192
  0
VERTEX
  8
0
  5
3D0
 10
2.286999
 20
6.174
 30
0.0
 70
   192
  0
VERTEX
  8
0
  5
3D1
 10
1.881
 20
6.199001
 30
0.0
 70
   192
  0
VERTEX
  8
0
  5
3D2
 10
0.0
 20
6.199
 30
0.0
 70
   192
  0
VERTEX
  8
0
  5
3D3
 10
2.286999
 20
0.0
 30
0.0
 70
   192
  0
VERTEX
  8
0
  5
3D4
 10
2.439999
 20
0.025
 30
0.0
 70
   192
  0
VERTEX
  8
0
  5
3D5
 10
3.023998
 20
0.152
 30
0.0
 70
   192
  0
VERTEX
  8
0
  5
3D6
 10
2.896999
 20
0.102
 30
0.0
 70
   192
  0
VERTEX
  8
0
  5
3D7
 10
3.456001
 20
0.305
 30
0.0
 70
   192
  0
VERTEX
  8
0
  5
3D8
 10
3.735001
 20
0.457
 30
0.0
 70
   192
  0
VERTEX
  8
0
  5
3D9
 10
3.989998
 20
0.61
 30
0.0
 70
   192
  0
VERTEX
  8
0
  5
3DA
 10
4.217999
 20
0.813
 30
0.0
 70
   192
  0
VERTEX
  8
0
  5
3DB
 10
4.625
 20
1.245
 30
0.0
 70
   192
  0
VERTEX
  8
0
  5
3DC
 10
4.93
 20
1.779
 30
0.0
 70
   192
  0
VERTEX
  8
0
  5
3DD
 10
5.133
 20
2.363
 30
0.0
 70
   192
  0
VERTEX
  8
0
  5
3DE
 10
5.209
 20
3.024
 30
0.0
 70
   192
  0
VERTEX
  8
0
  5
3DF
 10
5.158001
 20
3.658
 30
0.0
 70
   192
  0
VERTEX
  8
0
  5
3E0
 10
4.980999
 20
4.268
 30
0.0
 70
   192
  0
VERTEX
  8
0
  5
3E1
 10
4.701
 20
4.802
 30
0.0
 70
   192
  0
VERTEX
  8
0
  5
3E2
 10
4.32
 20
5.259
 30
0.0
 70
   192
  0
VERTEX
  8
0
  5
3E3
 10
4.091
 20
5.462
 30
0.0
 70
   192
  0
VERTEX
  8
0
  5
3E4
 10
3.812
 20
5.665
 30
0.0
 70
   192
  0
VERTEX
  8
0
  5
3E5
 10
3.685001
 20
5.742
 30
0.0
 70
   192
  0
VERTEX
  8
0
  5
3E6
 10
3.023998
 20
5.996001
 30
0.0
 70
   192
  0
VERTEX
  8
0
  5
3E7
 10
2.871998
 20
6.072
 30
0.0
 70
   192
  0
VERTEX
  8
0
 62
     0
  5
3E8
 10
0.0
 20
0.0
 30
0.0
 70
   128
 71
    -1
 72
    -2
 73
    -3
  0
VERTEX
  8
0
 62
     0
  5
3E9
 10
0.0
 20
0.0
 30
0.0
 70
   128
 71
    -2
 72
    -4
 73
    -3
  0
VERTEX
  8
0
 62
     0
  5
3EA
 10
0.0
 20
0.0
 30
0.0
 70
   128
 71
    -1
 72
    -5
 73
    -2
  0
VERTEX
  8
0
 62
     0
  5
3EB
 10
0.0
 20
0.0
 30
0.0
 70
   128
 71
    -3
 72
    -6
 73
    -1
  0
VERTEX
  8
0
 62
     0
  5
3EC
 10
0.0
 20
0.0
 30
0.0
 70
   128
 71
    -4
 72
    -7
 73
    -3
  0
VERTEX
  8
0
 62
     0
  5
3ED
 10
0.0
 20
0.0
 30
0.0
 70
   128
 71
    -2
 72
    -8
 73
    -4
  0
VERTEX
  8
0
 62
     0
  5
3EE
 10
0.0
 20
0.0
 30
0.0
 70
   128
 71
    -5
 72
    -9
 73
    -2
  0
VERTEX
  8
0
 62
     0
  5
3EF
 10
0.0
 20
0.0
 30
0.0
 70
   128
 71
    -1
 72
   -10
 73
    -5
  0
VERTEX
  8
0
 62
     0
  5
3F0
 10
0.0
 20
0.0
 30
0.0
 70
   128
 71
     6
 72
   -11
 73
    -1
  0
VERTEX
  8
0
 62
     0
  5
3F1
 10
0.0
 20
0.0
 30
0.0
 70
   128
 71
    -3
 72
   -12
 73
    -6
  0
VERTEX
  8
0
 62
     0
  5
3F2
 10
0.0
 20
0.0
 30
0.0
 70
   128
 71
    -3
 72
   -13
 73
   -12
  0
VERTEX
  8
0
 62
     0
  5
3F3
 10
0.0
 20
0.0
 30
0.0
 70
   128
 71
    -7
 72
    14
 73
    -3
  0
VERTEX
  8
0
 62
     0
  5
3F4
 10
0.0
 20
0.0
 30
0.0
 70
   128
 71
    -4
 72
    15
 73
    -7
  0
VERTEX
  8
0
 62
     0
  5
3F5
 10
0.0
 20
0.0
 30
0.0
 70
   128
 71
    -8
 72
   -16
 73
    -4
  0
VERTEX
  8
0
 62
     0
  5
3F6
 10
0.0
 20
0.0
 30
0.0
 70
   128
 71
    -2
 72
   -17
 73
    -8
  0
VERTEX
  8
0
 62
     0
  5
3F7
 10
0.0
 20
0.0
 30
0.0
 70
   128
 71
    -9
 72
   -18
 73
    -2
  0
VERTEX
  8
0
 62
     0
  5
3F8
 10
0.0
 20
0.0
 30
0.0
 70
   128
 71
    -5
 72
   -19
 73
    -9
  0
VERTEX
  8
0
 62
     0
  5
3F9
 10
0.0
 20
0.0
 30
0.0
 70
   128
 71
   -10
 72
   -20
 73
    -5
  0
VERTEX
  8
0
 62
     0
  5
3FA
 10
0.0
 20
0.0
 30
0.0
 70
   128
 71
    -1
 72
   -21
 73
   -10
  0
VERTEX
  8
0
 62
     0
  5
3FB
 10
0.0
 20
0.0
 30
0.0
 70
   128
 71
   -11
 72
   -22
 73
    -1
  0
VERTEX
  8
0
 62
     0
  5
3FC
 10
0.0
 20
0.0
 30
0.0
 70
   128
 71
   -11
 72
    23
 73
   -22
  0
VERTEX
  8
0
 62
     0
  5
3FD
 10
0.0
 20
0.0
 30
0.0
 70
   128
 71
    12
 72
    24
 73
    -6
  0
VERTEX
  8
0
 62
     0
  5
3FE
 10
0.0
 20
0.0
 30
0.0
 70
   128
 71
   -13
 72
    25
 73
   -12
  0
VERTEX
  8
0
 62
     0
  5
3FF
 10
0.0
 20
0.0
 30
0.0
 70
   128
 71
    13
 72
    26
 73
   -25
  0
VERTEX
  8
0
 62
     0
  5
400
 10
0.0
 20
0.0
 30
0.0
 70
   128
 71
    -3
 72
    27
 73
   -13
  0
VERTEX
  8
0
 62
     0
  5
401
 10
0.0
 20
0.0
 30
0.0
 70
   128
 71
     3
 72
    28
 73
   -27
  0
VERTEX
  8
0
 62
     0
  5
402
 10
0.0
 20
0.0
 30
0.0
 70
   128
 71
     7
 72
   -29
 73
   -14
  0
VERTEX
  8
0
 62
     0
  5
403
 10
0.0
 20
0.0
 30
0.0
 70
   128
 71
    29
 72
    30
 73
   -14
  0
VERTEX
  8
0
 62
     0
  5
404
 10
0.0
 20
0.0
 30
0.0
 70
   128
 71
     4
 72
    31
 73
   -15
  0
VERTEX
  8
0
 62
     0
  5
405
 10
0.0
 20
0.0
 30
0.0
 70
   128
 71
    16
 72
    32
 73
    -4
  0
VERTEX
  8
0
 62
     0
  5
406
 10
0.0
 20
0.0
 30
0.0
 70
   128
 71
     8
 72
    33
 73
   -16
  0
VERTEX
  8
0
 62
     0
  5
407
 10
0.0
 20
0.0
 30
0.0
 70
   128
 71
    17
 72
    34
 73
    -8
  0
VERTEX
  8
0
 62
     0
  5
408
 10
0.0
 20
0.0
 30
0.0
 70
   128
 71
     2
 72
    35
 73
   -17
  0
VERTEX
  8
0
 62
     0
  5
409
 10
0.0
 20
0.0
 30
0.0
 70
   128
 71
    18
 72
    36
 73
    -2
  0
VERTEX
  8
0
 62
     0
  5
40A
 10
0.0
 20
0.0
 30
0.0
 70
   128
 71
     9
 72
    37
 73
   -18
  0
VERTEX
  8
0
 62
     0
  5
40B
 10
0.0
 20
0.0
 30
0.0
 70
   128
 71
    19
 72
    38
 73
    -9
  0
VERTEX
  8
0
 62
     0
  5
40C
 10
0.0
 20
0.0
 30
0.0
 70
   128
 71
     5
 72
    39
 73
   -19
  0
VERTEX
  8
0
 62
     0
  5
40D
 10
0.0
 20
0.0
 30
0.0
 70
   128
 71
    20
 72
    40
 73
    -5
  0
VERTEX
  8
0
 62
     0
  5
40E
 10
0.0
 20
0.0
 30
0.0
 70
   128
 71
    10
 72
    41
 73
   -20
  0
VERTEX
  8
0
 62
     0
  5
40F
 10
0.0
 20
0.0
 30
0.0
 70
   128
 71
    21
 72
    42
 73
   -10
  0
VERTEX
  8
0
 62
     0
  5
410
 10
0.0
 20
0.0
 30
0.0
 70
   128
 71
     1
 72
    43
 73
   -21
  0
VERTEX
  8
0
 62
     0
  5
411
 10
0.0
 20
0.0
 30
0.0
 70
   128
 71
   -22
 72
    44
 73
    -1
  0
VERTEX
  8
0
 62
     0
  5
412
 10
0.0
 20
0.0
 30
0.0
 70
   128
 71
    22
 72
    45
 73
   -44
  0
VERTEX
  8
0
 62
     0
  5
413
 10
0.0
 20
0.0
 30
0.0
 70
   128
 71
   -11
 72
    46
 73
   -23
  0
VERTEX
  8
0
 62
     0
  5
414
 10
0.0
 20
0.0
 30
0.0
 70
   128
 71
    11
 72
    47
 73
   -46
  0
SEQEND
  8
0
 62
     0
  5
415
  0
ENDBLK
  8
0
  5
416
  0
BLOCK
  8
0
  5
419
  2
*U5
 70
    65
 10
0.0
 20
0.0
 30
0.0
  1
*U
  0
LINE
  8
0
 62
     7
  5
41A
 10
-50.591
 20
-3.252
 30
0.0
 11
-48.304001
 21
-3.252
 31
0.0
1001
AME_SOL
1070
     1
1071
      350
  0
LINE
  8
0
 62
     7
  5
41B
 10
-50.591
 20
-3.252
 30
4.0
 11
-48.304001
 21
-3.252
 31
4.0
1001
AME_SOL
1070
     1
1071
      349
  0
LINE
  8
0
 62
     7
  5
41C
 10
-48.304001
 20
-3.252
 30
0.0
 11
-48.150898
 21
-3.226983
 31
0.0
1001
AME_SOL
1070
     1
1071
      348
  0
LINE
  8
0
 62
     7
  5
41D
 10
-48.304001
 20
-3.252
 30
0.0
 11
-48.304001
 21
-3.252
 31
4.0
1001
AME_SOL
1070
     1
1071
      347
  0
LINE
  8
0
 62
     7
  5
41E
 10
-48.304001
 20
-3.252
 30
4.0
 11
-48.150898
 21
-3.226983
 31
4.0
1001
AME_SOL
1070
     1
1071
      346
  0
LINE
  8
0
 62
     7
  5
41F
 10
-47.847042
 20
-3.176007
 30
0.0
 11
-47.694
 21
-3.149999
 31
0.0
1001
AME_SOL
1070
     1
1071
      345
  0
LINE
  8
0
 62
     7
  5
420
 10
-47.847042
 20
-3.176007
 30
4.0
 11
-47.694
 21
-3.149999
 31
4.0
1001
AME_SOL
1070
     1
1071
      344
  0
LINE
  8
0
 62
     7
  5
421
 10
-47.262009
 20
-2.998002
 30
0.0
 11
-47.134995
 21
-2.946998
 31
0.0
1001
AME_SOL
1070
     1
1071
      343
  0
LINE
  8
0
 62
     7
  5
422
 10
-47.261982
 20
-2.997993
 30
4.0
 11
-47.13501
 21
-2.947005
 31
4.0
1001
AME_SOL
1070
     1
1071
      342
  0
LINE
  8
0
 62
     7
  5
423
 10
-46.372967
 20
-2.438971
 30
0.0
 11
-46.169025
 21
-2.236029
 31
0.0
1001
AME_SOL
1070
     1
1071
      341
  0
LINE
  8
0
 62
     7
  5
424
 10
-46.372967
 20
-2.438971
 30
4.0
 11
-46.169025
 21
-2.236029
 31
4.0
1001
AME_SOL
1070
     1
1071
      340
  0
LINE
  8
0
 62
     7
  5
425
 10
-46.169029
 20
-2.236029
 30
0.0
 11
-45.965996
 21
-2.00699
 31
0.0
1001
AME_SOL
1070
     1
1071
      339
  0
LINE
  8
0
 62
     7
  5
426
 10
-46.168999
 20
-2.236
 30
0.0
 11
-46.168999
 21
-2.236
 31
4.0
1001
AME_SOL
1070
     1
1071
      338
  0
LINE
  8
0
 62
     7
  5
427
 10
-46.169029
 20
-2.23603
 30
4.0
 11
-45.966011
 21
-2.007008
 31
4.0
1001
AME_SOL
1070
     1
1071
      337
  0
LINE
  8
0
 62
     7
  5
428
 10
-45.965996
 20
-2.006998
 30
0.0
 11
-45.814007
 21
-1.753018
 31
0.0
1001
AME_SOL
1070
     1
1071
      336
  0
LINE
  8
0
 62
     7
  5
429
 10
-45.966
 20
-2.007
 30
0.0
 11
-45.966
 21
-2.007
 31
4.0
1001
AME_SOL
1070
     1
1071
      335
  0
LINE
  8
0
 62
     7
  5
42A
 10
-45.965996
 20
-2.006998
 30
4.0
 11
-45.814007
 21
-1.753018
 31
4.0
1001
AME_SOL
1070
     1
1071
      334
  0
LINE
  8
0
 62
     7
  5
42B
 10
-45.813976
 20
-1.752958
 30
0.0
 11
-45.661003
 21
-1.473001
 31
0.0
1001
AME_SOL
1070
     1
1071
      333
  0
LINE
  8
0
 62
     7
  5
42C
 10
-45.813999
 20
-1.753
 30
0.0
 11
-45.813999
 21
-1.753
 31
4.0
1001
AME_SOL
1070
     1
1071
      332
  0
LINE
  8
0
 62
     7
  5
42D
 10
-45.813976
 20
-1.752958
 30
4.0
 11
-45.661003
 21
-1.473001
 31
4.0
1001
AME_SOL
1070
     1
1071
      331
  0
LINE
  8
0
 62
     7
  5
42E
 10
-45.660988
 20
-1.472974
 30
0.0
 11
-45.534
 21
-1.194
 31
0.0
1001
AME_SOL
1070
     1
1071
      330
  0
LINE
  8
0
 62
     7
  5
42F
 10
-45.661003
 20
-1.473
 30
0.0
 11
-45.661003
 21
-1.473
 31
4.0
1001
AME_SOL
1070
     1
1071
      329
  0
LINE
  8
0
 62
     7
  5
430
 10
-45.660988
 20
-1.472974
 30
4.0
 11
-45.534
 21
-1.194
 31
4.0
1001
AME_SOL
1070
     1
1071
      328
  0
LINE
  8
0
 62
     7
  5
431
 10
-45.533997
 20
-1.193995
 30
0.0
 11
-45.458
 21
-0.889003
 31
0.0
1001
AME_SOL
1070
     1
1071
      327
  0
LINE
  8
0
 62
     7
  5
432
 10
-45.534
 20
-1.194
 30
0.0
 11
-45.534
 21
-1.194
 31
4.0
1001
AME_SOL
1070
     1
1071
      326
  0
LINE
  8
0
 62
     7
  5
433
 10
-45.533997
 20
-1.193995
 30
4.0
 11
-45.458
 21
-0.889003
 31
4.0
1001
AME_SOL
1070
     1
1071
      325
  0
LINE
  8
0
 62
     7
  5
434
 10
-45.458004
 20
-0.889025
 30
0.0
 11
-45.406998
 21
-0.558974
 31
0.0
1001
AME_SOL
1070
     1
1071
      324
  0
LINE
  8
0
 62
     7
  5
435
 10
-45.458
 20
-0.889
 30
0.0
 11
-45.458
 21
-0.889
 31
4.0
1001
AME_SOL
1070
     1
1071
      323
  0
LINE
  8
0
 62
     7
  5
436
 10
-45.458004
 20
-0.889025
 30
4.0
 11
-45.406998
 21
-0.558974
 31
4.0
1001
AME_SOL
1070
     1
1071
      322
  0
LINE
  8
0
 62
     7
  5
437
 10
-45.407005
 20
-0.559033
 30
0.0
 11
-45.382
 21
-0.228009
 31
0.0
1001
AME_SOL
1070
     1
1071
      321
  0
LINE
  8
0
 62
     7
  5
438
 10
-45.407001
 20
-0.559
 30
0.0
 11
-45.407001
 21
-0.559
 31
4.0
1001
AME_SOL
1070
     1
1071
      320
  0
LINE
  8
0
 62
     7
  5
439
 10
-45.407005
 20
-0.559033
 30
4.0
 11
-45.382
 21
-0.228009
 31
4.0
1001
AME_SOL
1070
     1
1071
      319
  0
LINE
  8
0
 62
     7
  5
43A
 10
-45.382
 20
-0.22801
 30
0.0
 11
-45.407036
 21
0.10142
 31
0.0
1001
AME_SOL
1070
     1
1071
      318
  0
LINE
  8
0
 62
     7
  5
43B
 10
-45.382
 20
-0.228
 30
0.0
 11
-45.382
 21
-0.228
 31
4.0
1001
AME_SOL
1070
     1
1071
      317
  0
LINE
  8
0
 62
     7
  5
43C
 10
-45.382
 20
-0.22801
 30
4.0
 11
-45.407036
 21
0.10142
 31
4.0
1001
AME_SOL
1070
     1
1071
      316
  0
LINE
  8
0
 62
     7
  5
43D
 10
-45.407017
 20
0.101191
 30
0.0
 11
-45.432991
 21
0.405968
 31
0.0
1001
AME_SOL
1070
     1
1071
      315
  0
LINE
  8
0
 62
     7
  5
43E
 10
-45.407001
 20
0.101
 30
0.0
 11
-45.407001
 21
0.101
 31
4.0
1001
AME_SOL
1070
     1
1071
      314
  0
LINE
  8
0
 62
     7
  5
43F
 10
-45.407017
 20
0.101191
 30
4.0
 11
-45.432995
 21
0.405995
 31
4.0
1001
AME_SOL
1070
     1
1071
      313
  0
LINE
  8
0
 62
     7
  5
440
 10
-45.432999
 20
0.405998
 30
0.0
 11
-45.508999
 21
0.711007
 31
0.0
1001
AME_SOL
1070
     1
1071
      312
  0
LINE
  8
0
 62
     7
  5
441
 10
-45.432999
 20
0.406
 30
0.0
 11
-45.432999
 21
0.406
 31
4.0
1001
AME_SOL
1070
     1
1071
      311
  0
LINE
  8
0
 62
     7
  5
442
 10
-45.432999
 20
0.405998
 30
4.0
 11
-45.508999
 21
0.711007
 31
4.0
1001
AME_SOL
1070
     1
1071
      310
  0
LINE
  8
0
 62
     7
  5
443
 10
-45.508999
 20
0.710991
 30
0.0
 11
-45.609997
 21
1.015974
 31
0.0
1001
AME_SOL
1070
     1
1071
      309
  0
LINE
  8
0
 62
     7
  5
444
 10
-45.508999
 20
0.711
 30
0.0
 11
-45.508999
 21
0.711
 31
4.0
1001
AME_SOL
1070
     1
1071
      308
  0
LINE
  8
0
 62
     7
  5
445
 10
-45.508999
 20
0.710991
 30
4.0
 11
-45.609997
 21
1.015974
 31
4.0
1001
AME_SOL
1070
     1
1071
      307
  0
LINE
  8
0
 62
     7
  5
446
 10
-45.609989
 20
1.015968
 30
0.0
 11
-45.737007
 21
1.295007
 31
0.0
1001
AME_SOL
1070
     1
1071
      306
  0
LINE
  8
0
 62
     7
  5
447
 10
-45.610001
 20
1.016
 30
0.0
 11
-45.610001
 21
1.016
 31
4.0
1001
AME_SOL
1070
     1
1071
      305
  0
LINE
  8
0
 62
     7
  5
448
 10
-45.609989
 20
1.015969
 30
4.0
 11
-45.737007
 21
1.295007
 31
4.0
1001
AME_SOL
1070
     1
1071
      304
  0
LINE
  8
0
 62
     7
  5
449
 10
-45.737015
 20
1.29502
 30
0.0
 11
-45.889992
 21
1.549988
 31
0.0
1001
AME_SOL
1070
     1
1071
      303
  0
LINE
  8
0
 62
     7
  5
44A
 10
-45.737003
 20
1.295
 30
0.0
 11
-45.737003
 21
1.295
 31
4.0
1001
AME_SOL
1070
     1
1071
      302
  0
LINE
  8
0
 62
     7
  5
44B
 10
-45.737015
 20
1.29502
 30
4.0
 11
-45.889992
 21
1.549989
 31
4.0
1001
AME_SOL
1070
     1
1071
      301
  0
LINE
  8
0
 62
     7
  5
44C
 10
-45.890003
 20
1.550003
 30
0.0
 11
-46.068008
 21
1.778008
 31
0.0
1001
AME_SOL
1070
     1
1071
      300
  0
LINE
  8
0
 62
     7
  5
44D
 10
-45.889999
 20
1.549999
 30
0.0
 11
-45.889999
 21
1.549999
 31
4.0
1001
AME_SOL
1070
     1
1071
      299
  0
LINE
  8
0
 62
     7
  5
44E
 10
-45.890003
 20
1.550004
 30
4.0
 11
-46.068008
 21
1.778008
 31
4.0
1001
AME_SOL
1070
     1
1071
      298
  0
LINE
  8
0
 62
     7
  5
44F
 10
-46.068024
 20
1.778025
 30
0.0
 11
-46.271
 21
2.006999
 31
0.0
1001
AME_SOL
1070
     1
1071
      297
  0
LINE
  8
0
 62
     7
  5
450
 10
-46.068005
 20
1.778
 30
0.0
 11
-46.068005
 21
1.778
 31
4.0
1001
AME_SOL
1070
     1
1071
      296
  0
LINE
  8
0
 62
     7
  5
451
 10
-46.068024
 20
1.778025
 30
4.0
 11
-46.271
 21
2.006999
 31
4.0
1001
AME_SOL
1070
     1
1071
      295
  0
LINE
  8
0
 62
     7
  5
452
 10
-46.500042
 20
2.210035
 30
0.0
 11
-46.626976
 21
2.311983
 31
0.0
1001
AME_SOL
1070
     1
1071
      294
  0
LINE
  8
0
 62
     7
  5
453
 10
-46.500042
 20
2.210035
 30
4.0
 11
-46.626976
 21
2.311983
 31
4.0
1001
AME_SOL
1070
     1
1071
      293
  0
LINE
  8
0
 62
     7
  5
454
 10
-46.626976
 20
2.311985
 30
0.0
 11
-46.778984
 21
2.41299
 31
0.0
1001
AME_SOL
1070
     1
1071
      292
  0
LINE
  8
0
 62
     7
  5
455
 10
-46.626999
 20
2.312
 30
0.0
 11
-46.626999
 21
2.312
 31
4.0
1001
AME_SOL
1070
     1
1071
      291
  0
LINE
  8
0
 62
     7
  5
456
 10
-46.626976
 20
2.311985
 30
4.0
 11
-46.778984
 21
2.41299
 31
4.0
1001
AME_SOL
1070
     1
1071
      290
  0
LINE
  8
0
 62
     7
  5
457
 10
-46.778996
 20
2.412995
 30
0.0
 11
-46.905998
 21
2.489998
 31
0.0
1001
AME_SOL
1070
     1
1071
      289
  0
LINE
  8
0
 62
     7
  5
458
 10
-46.778999
 20
2.413
 30
0.0
 11
-46.778999
 21
2.413
 31
4.0
1001
AME_SOL
1070
     1
1071
      288
  0
LINE
  8
0
 62
     7
  5
459
 10
-46.778996
 20
2.412996
 30
4.0
 11
-46.905998
 21
2.489999
 31
4.0
1001
AME_SOL
1070
     1
1071
      287
  0
LINE
  8
0
 62
     7
  5
45A
 10
-48.101013
 20
2.896002
 30
0.0
 11
-48.303993
 21
2.921999
 31
0.0
1001
AME_SOL
1070
     1
1071
      286
  0
LINE
  8
0
 62
     7
  5
45B
 10
-48.101013
 20
2.896002
 30
4.0
 11
-48.303993
 21
2.921999
 31
4.0
1001
AME_SOL
1070
     1
1071
      285
  0
LINE
  8
0
 62
     7
  5
45C
 10
-48.709995
 20
2.947
 30
0.0
 11
-50.591
 21
2.947
 31
0.0
1001
AME_SOL
1070
     1
1071
      284
  0
LINE
  8
0
 62
     7
  5
45D
 10
-48.709999
 20
2.947001
 30
4.0
 11
-50.591
 21
2.947001
 31
4.0
1001
AME_SOL
1070
     1
1071
      283
  0
LINE
  8
0
 62
     7
  5
45E
 10
-50.591
 20
2.947001
 30
0.0
 11
-50.591
 21
-3.252
 31
0.0
1001
AME_SOL
1070
     1
1071
      282
  0
LINE
  8
0
 62
     7
  5
45F
 10
-50.591
 20
-3.252
 30
0.0
 11
-50.591
 21
-3.252
 31
4.0
1001
AME_SOL
1070
     1
1071
      281
  0
LINE
  8
0
 62
     7
  5
460
 10
-50.591
 20
2.947
 30
0.0
 11
-50.591
 21
2.947
 31
4.0
1001
AME_SOL
1070
     1
1071
      280
  0
LINE
  8
0
 62
     7
  5
461
 10
-50.591
 20
2.947001
 30
4.0
 11
-50.591
 21
-3.252
 31
4.0
1001
AME_SOL
1070
     1
1071
      279
  0
LINE
  8
0
 62
     7
  5
462
 10
-48.709995
 20
2.947
 30
0.0
 11
-48.507
 21
2.922
 31
0.0
1001
AME_SOL
1070
     1
1071
      278
  0
LINE
  8
0
 62
     7
  5
463
 10
-48.709999
 20
2.947
 30
0.0
 11
-48.709999
 21
2.947
 31
4.0
1001
AME_SOL
1070
     1
1071
      277
  0
LINE
  8
0
 62
     7
  5
464
 10
-48.710003
 20
2.947001
 30
4.0
 11
-48.507
 21
2.922
 31
4.0
1001
AME_SOL
1070
     1
1071
      276
  0
LINE
  8
0
 62
     7
  5
465
 10
-48.507
 20
2.922
 30
0.0
 11
-48.304005
 21
2.922
 31
0.0
1001
AME_SOL
1070
     1
1071
      275
  0
LINE
  8
0
 62
     7
  5
466
 10
-48.304001
 20
2.922
 30
0.0
 11
-48.304001
 21
2.922
 31
4.0
1001
AME_SOL
1070
     1
1071
      274
  0
LINE
  8
0
 62
     7
  5
467
 10
-48.507
 20
2.922
 30
0.0
 11
-48.507
 21
2.922
 31
4.0
1001
AME_SOL
1070
     1
1071
      273
  0
LINE
  8
0
 62
     7
  5
468
 10
-48.507
 20
2.922
 30
4.0
 11
-48.303997
 21
2.922
 31
4.0
1001
AME_SOL
1070
     1
1071
      272
  0
LINE
  8
0
 62
     7
  5
469
 10
-48.100998
 20
2.895999
 30
0.0
 11
-47.922993
 21
2.844998
 31
0.0
1001
AME_SOL
1070
     1
1071
      271
  0
LINE
  8
0
 62
     7
  5
46A
 10
-48.101002
 20
2.896
 30
0.0
 11
-48.101002
 21
2.896
 31
4.0
1001
AME_SOL
1070
     1
1071
      270
  0
LINE
  8
0
 62
     7
  5
46B
 10
-48.101002
 20
2.895999
 30
4.0
 11
-47.922993
 21
2.844998
 31
4.0
1001
AME_SOL
1070
     1
1071
      269
  0
LINE
  8
0
 62
     7
  5
46C
 10
-47.922997
 20
2.844999
 30
0.0
 11
-47.718994
 21
2.819998
 31
0.0
1001
AME_SOL
1070
     1
1071
      268
  0
LINE
  8
0
 62
     7
  5
46D
 10
-47.923
 20
2.845
 30
0.0
 11
-47.923
 21
2.845
 31
4.0
1001
AME_SOL
1070
     1
1071
      267
  0
LINE
  8
0
 62
     7
  5
46E
 10
-47.922997
 20
2.844998
 30
4.0
 11
-47.718994
 21
2.819998
 31
4.0
1001
AME_SOL
1070
     1
1071
      266
  0
LINE
  8
0
 62
     7
  5
46F
 10
-47.718987
 20
2.819994
 30
0.0
 11
-47.566998
 21
2.743999
 31
0.0
1001
AME_SOL
1070
     1
1071
      265
  0
LINE
  8
0
 62
     7
  5
470
 10
-47.719002
 20
2.819999
 30
0.0
 11
-47.719002
 21
2.819999
 31
4.0
1001
AME_SOL
1070
     1
1071
      264
  0
LINE
  8
0
 62
     7
  5
471
 10
-47.719002
 20
2.82
 30
4.0
 11
-47.567005
 21
2.744002
 31
4.0
1001
AME_SOL
1070
     1
1071
      263
  0
LINE
  8
0
 62
     7
  5
472
 10
-47.566994
 20
2.744
 30
0.0
 11
-47.211018
 21
2.642007
 31
0.0
1001
AME_SOL
1070
     1
1071
      262
  0
LINE
  8
0
 62
     7
  5
473
 10
-47.567001
 20
2.744
 30
0.0
 11
-47.567001
 21
2.744
 31
4.0
1001
AME_SOL
1070
     1
1071
      261
  0
LINE
  8
0
 62
     7
  5
474
 10
-47.566994
 20
2.743999
 30
4.0
 11
-47.211018
 21
2.642006
 31
4.0
1001
AME_SOL
1070
     1
1071
      260
  0
LINE
  8
0
 62
     7
  5
475
 10
-47.209969
 20
2.641487
 30
0.0
 11
-47.058178
 21
2.56559
 31
0.0
1001
AME_SOL
1070
     1
1071
      259
  0
LINE
  8
0
 62
     7
  5
476
 10
-47.210999
 20
2.642
 30
0.0
 11
-47.210999
 21
2.642
 31
4.0
1001
AME_SOL
1070
     1
1071
      258
  0
LINE
  8
0
 62
     7
  5
477
 10
-47.209969
 20
2.641486
 30
4.0
 11
-47.058178
 21
2.56559
 31
4.0
1001
AME_SOL
1070
     1
1071
      257
  0
LINE
  8
0
 62
     7
  5
478
 10
-47.05896
 20
2.565979
 30
0.0
 11
-46.90601
 21
2.490003
 31
0.0
1001
AME_SOL
1070
     1
1071
      256
  0
LINE
  8
0
 62
     7
  5
479
 10
-46.905998
 20
2.49
 30
0.0
 11
-46.905998
 21
2.49
 31
4.0
1001
AME_SOL
1070
     1
1071
      255
  0
LINE
  8
0
 62
     7
  5
47A
 10
-47.058998
 20
2.565999
 30
0.0
 11
-47.058998
 21
2.565999
 31
4.0
1001
AME_SOL
1070
     1
1071
      254
  0
LINE
  8
0
 62
     7
  5
47B
 10
-47.05896
 20
2.565979
 30
4.0
 11
-46.90601
 21
2.490003
 31
4.0
1001
AME_SOL
1070
     1
1071
      253
  0
LINE
  8
0
 62
     7
  5
47C
 10
-46.499985
 20
2.209985
 30
0.0
 11
-46.397999
 21
2.109001
 31
0.0
1001
AME_SOL
1070
     1
1071
      252
  0
LINE
  8
0
 62
     7
  5
47D
 10
-46.500004
 20
2.21
 30
0.0
 11
-46.500004
 21
2.21
 31
4.0
1001
AME_SOL
1070
     1
1071
      251
  0
LINE
  8
0
 62
     7
  5
47E
 10
-46.500004
 20
2.210005
 30
4.0
 11
-46.397999
 21
2.109001
 31
4.0
1001
AME_SOL
1070
     1
1071
      250
  0
LINE
  8
0
 62
     7
  5
47F
 10
-46.397995
 20
2.108998
 30
0.0
 11
-46.271004
 21
2.007002
 31
0.0
1001
AME_SOL
1070
     1
1071
      249
  0
LINE
  8
0
 62
     7
  5
480
 10
-46.271
 20
2.007
 30
0.0
 11
-46.271
 21
2.007
 31
4.0
1001
AME_SOL
1070
     1
1071
      248
  0
LINE
  8
0
 62
     7
  5
481
 10
-46.397999
 20
2.109
 30
0.0
 11
-46.397999
 21
2.109
 31
4.0
1001
AME_SOL
1070
     1
1071
      247
  0
LINE
  8
0
 62
     7
  5
482
 10
-46.397995
 20
2.108998
 30
4.0
 11
-46.271004
 21
2.007002
 31
4.0
1001
AME_SOL
1070
     1
1071
      246
  0
LINE
  8
0
 62
     7
  5
483
 10
-46.373001
 20
-2.438999
 30
0.0
 11
-46.5
 21
-2.539999
 31
0.0
1001
AME_SOL
1070
     1
1071
      245
  0
LINE
  8
0
 62
     7
  5
484
 10
-46.373001
 20
-2.439
 30
0.0
 11
-46.373001
 21
-2.439
 31
4.0
1001
AME_SOL
1070
     1
1071
      244
  0
LINE
  8
0
 62
     7
  5
485
 10
-46.373001
 20
-2.438999
 30
4.0
 11
-46.5
 21
-2.539999
 31
4.0
1001
AME_SOL
1070
     1
1071
      243
  0
LINE
  8
0
 62
     7
  5
486
 10
-46.499989
 20
-2.539989
 30
0.0
 11
-46.600994
 21
-2.641994
 31
0.0
1001
AME_SOL
1070
     1
1071
      242
  0
LINE
  8
0
 62
     7
  5
487
 10
-46.500004
 20
-2.54
 30
0.0
 11
-46.500004
 21
-2.54
 31
4.0
1001
AME_SOL
1070
     1
1071
      241
  0
LINE
  8
0
 62
     7
  5
488
 10
-46.499989
 20
-2.539988
 30
4.0
 11
-46.600998
 21
-2.641994
 31
4.0
1001
AME_SOL
1070
     1
1071
      240
  0
LINE
  8
0
 62
     7
  5
489
 10
-46.601574
 20
-2.642343
 30
0.0
 11
-46.728413
 21
-2.718247
 31
0.0
1001
AME_SOL
1070
     1
1071
      239
  0
LINE
  8
0
 62
     7
  5
48A
 10
-46.601002
 20
-2.642
 30
0.0
 11
-46.601002
 21
-2.642
 31
4.0
1001
AME_SOL
1070
     1
1071
      238
  0
LINE
  8
0
 62
     7
  5
48B
 10
-46.601574
 20
-2.642343
 30
4.0
 11
-46.728825
 21
-2.718493
 31
4.0
1001
AME_SOL
1070
     1
1071
      237
  0
LINE
  8
0
 62
     7
  5
48C
 10
-46.727779
 20
-2.717865
 30
0.0
 11
-46.856098
 21
-2.795056
 31
0.0
1001
AME_SOL
1070
     1
1071
      236
  0
LINE
  8
0
 62
     7
  5
48D
 10
-46.728001
 20
-2.718
 30
0.0
 11
-46.728001
 21
-2.718
 31
4.0
1001
AME_SOL
1070
     1
1071
      235
  0
LINE
  8
0
 62
     7
  5
48E
 10
-46.727779
 20
-2.717865
 30
4.0
 11
-46.856098
 21
-2.795056
 31
4.0
1001
AME_SOL
1070
     1
1071
      234
  0
LINE
  8
0
 62
     7
  5
48F
 10
-46.856026
 20
-2.795014
 30
0.0
 11
-47.008018
 21
-2.87101
 31
0.0
1001
AME_SOL
1070
     1
1071
      233
  0
LINE
  8
0
 62
     7
  5
490
 10
-46.855999
 20
-2.795
 30
0.0
 11
-46.855999
 21
-2.795
 31
4.0
1001
AME_SOL
1070
     1
1071
      232
  0
LINE
  8
0
 62
     7
  5
491
 10
-46.856026
 20
-2.795014
 30
4.0
 11
-47.008018
 21
-2.87101
 31
4.0
1001
AME_SOL
1070
     1
1071
      231
  0
LINE
  8
0
 62
     7
  5
492
 10
-47.008015
 20
-2.871011
 30
0.0
 11
-47.134968
 21
-2.946984
 31
0.0
1001
AME_SOL
1070
     1
1071
      230
  0
LINE
  8
0
 62
     7
  5
493
 10
-47.134998
 20
-2.947
 30
0.0
 11
-47.134998
 21
-2.947
 31
4.0
1001
AME_SOL
1070
     1
1071
      229
  0
LINE
  8
0
 62
     7
  5
494
 10
-47.007999
 20
-2.871
 30
0.0
 11
-47.007999
 21
-2.871
 31
4.0
1001
AME_SOL
1070
     1
1071
      228
  0
LINE
  8
0
 62
     7
  5
495
 10
-47.007992
 20
-2.870997
 30
4.0
 11
-47.134968
 21
-2.946984
 31
4.0
1001
AME_SOL
1070
     1
1071
      227
  0
LINE
  8
0
 62
     7
  5
496
 10
-47.262047
 20
-2.998017
 30
0.0
 11
-47.41547
 21
-3.049158
 31
0.0
1001
AME_SOL
1070
     1
1071
      226
  0
LINE
  8
0
 62
     7
  5
497
 10
-47.262001
 20
-2.998
 30
0.0
 11
-47.262001
 21
-2.998
 31
4.0
1001
AME_SOL
1070
     1
1071
      225
  0
LINE
  8
0
 62
     7
  5
498
 10
-47.262043
 20
-2.998015
 30
4.0
 11
-47.41547
 21
-3.049157
 31
4.0
1001
AME_SOL
1070
     1
1071
      224
  0
LINE
  8
0
 62
     7
  5
499
 10
-47.41552
 20
-3.049174
 30
0.0
 11
-47.567013
 21
-3.100004
 31
0.0
1001
AME_SOL
1070
     1
1071
      223
  0
LINE
  8
0
 62
     7
  5
49A
 10
-47.415001
 20
-3.049
 30
0.0
 11
-47.415001
 21
-3.049
 31
4.0
1001
AME_SOL
1070
     1
1071
      222
  0
LINE
  8
0
 62
     7
  5
49B
 10
-47.41552
 20
-3.049174
 30
4.0
 11
-47.567013
 21
-3.100003
 31
4.0
1001
AME_SOL
1070
     1
1071
      221
  0
LINE
  8
0
 62
     7
  5
49C
 10
-47.567005
 20
-3.100001
 30
0.0
 11
-47.694
 21
-3.150001
 31
0.0
1001
AME_SOL
1070
     1
1071
      220
  0
LINE
  8
0
 62
     7
  5
49D
 10
-47.694
 20
-3.15
 30
0.0
 11
-47.694
 21
-3.15
 31
4.0
1001
AME_SOL
1070
     1
1071
      219
  0
LINE
  8
0
 62
     7
  5
49E
 10
-47.567001
 20
-3.1
 30
0.0
 11
-47.567001
 21
-3.1
 31
4.0
1001
AME_SOL
1070
     1
1071
      218
  0
LINE
  8
0
 62
     7
  5
49F
 10
-47.567005
 20
-3.100001
 30
4.0
 11
-47.694
 21
-3.15
 31
4.0
1001
AME_SOL
1070
     1
1071
      217
  0
LINE
  8
0
 62
     7
  5
4A0
 10
-47.846966
 20
-3.175995
 30
0.0
 11
-47.999081
 21
-3.201013
 31
0.0
1001
AME_SOL
1070
     1
1071
      216
  0
LINE
  8
0
 62
     7
  5
4A1
 10
-47.847
 20
-3.176
 30
0.0
 11
-47.847
 21
-3.176
 31
4.0
1001
AME_SOL
1070
     1
1071
      215
  0
LINE
  8
0
 62
     7
  5
4A2
 10
-47.846817
 20
-3.17597
 30
4.0
 11
-47.998997
 21
-3.200999
 31
4.0
1001
AME_SOL
1070
     1
1071
      214
  0
LINE
  8
0
 62
     7
  5
4A3
 10
-47.999004
 20
-3.201
 30
0.0
 11
-48.15115
 21
-3.227025
 31
0.0
1001
AME_SOL
1070
     1
1071
      213
  0
LINE
  8
0
 62
     7
  5
4A4
 10
-48.151001
 20
-3.227
 30
0.0
 11
-48.151001
 21
-3.227
 31
4.0
1001
AME_SOL
1070
     1
1071
      212
  0
LINE
  8
0
 62
     7
  5
4A5
 10
-47.999001
 20
-3.201
 30
0.0
 11
-47.999001
 21
-3.201
 31
4.0
1001
AME_SOL
1070
     1
1071
      211
  0
LINE
  8
0
 62
     7
  5
4A6
 10
-47.999088
 20
-3.201014
 30
4.0
 11
-48.151295
 21
-3.227049
 31
4.0
1001
AME_SOL
1070
     1
1071
      210
  0
LINE
  8
0
 62
     7
  5
4A7
 10
-50.006001
 20
-2.744
 30
0.0
 11
-48.736
 21
-2.744
 31
0.0
1001
AME_SOL
1070
     1
1071
      209
  0
LINE
  8
0
 62
     7
  5
4A8
 10
-50.006001
 20
-2.744
 30
4.0
 11
-48.736
 21
-2.744
 31
4.0
1001
AME_SOL
1070
     1
1071
      208
  0
LINE
  8
0
 62
     7
  5
4A9
 10
-48.125996
 20
-2.668
 30
0.0
 11
-47.847008
 21
-2.591003
 31
0.0
1001
AME_SOL
1070
     1
1071
      207
  0
LINE
  8
0
 62
     7
  5
4AA
 10
-48.125999
 20
-2.668001
 30
4.0
 11
-47.847008
 21
-2.591003
 31
4.0
1001
AME_SOL
1070
     1
1071
      206
  0
LINE
  8
0
 62
     7
  5
4AB
 10
-47.847
 20
-2.591002
 30
0.0
 11
-47.591988
 21
-2.489996
 31
0.0
1001
AME_SOL
1070
     1
1071
      205
  0
LINE
  8
0
 62
     7
  5
4AC
 10
-47.847
 20
-2.591
 30
0.0
 11
-47.847
 21
-2.591
 31
4.0
1001
AME_SOL
1070
     1
1071
      204
  0
LINE
  8
0
 62
     7
  5
4AD
 10
-47.847
 20
-2.591002
 30
4.0
 11
-47.591988
 21
-2.489996
 31
4.0
1001
AME_SOL
1070
     1
1071
      203
  0
LINE
  8
0
 62
     7
  5
4AE
 10
-47.591949
 20
-2.489978
 30
0.0
 11
-47.364021
 21
-2.388012
 31
0.0
1001
AME_SOL
1070
     1
1071
      202
  0
LINE
  8
0
 62
     7
  5
4AF
 10
-47.591999
 20
-2.49
 30
0.0
 11
-47.591999
 21
-2.49
 31
4.0
1001
AME_SOL
1070
     1
1071
      201
  0
LINE
  8
0
 62
     7
  5
4B0
 10
-47.591969
 20
-2.489988
 30
4.0
 11
-47.364021
 21
-2.388012
 31
4.0
1001
AME_SOL
1070
     1
1071
      200
  0
LINE
  8
0
 62
     7
  5
4B1
 10
-47.364002
 20
-2.388004
 30
0.0
 11
-47.134987
 21
-2.260995
 31
0.0
1001
AME_SOL
1070
     1
1071
      199
  0
LINE
  8
0
 62
     7
  5
4B2
 10
-47.363995
 20
-2.388
 30
0.0
 11
-47.363995
 21
-2.388
 31
4.0
1001
AME_SOL
1070
     1
1071
      198
  0
LINE
  8
0
 62
     7
  5
4B3
 10
-47.363991
 20
-2.387998
 30
4.0
 11
-47.134987
 21
-2.260995
 31
4.0
1001
AME_SOL
1070
     1
1071
      197
  0
LINE
  8
0
 62
     7
  5
4B4
 10
-47.134968
 20
-2.260982
 30
0.0
 11
-46.90601
 21
-2.109011
 31
0.0
1001
AME_SOL
1070
     1
1071
      196
  0
LINE
  8
0
 62
     7
  5
4B5
 10
-47.134998
 20
-2.261
 30
0.0
 11
-47.134998
 21
-2.261
 31
4.0
1001
AME_SOL
1070
     1
1071
      195
  0
LINE
  8
0
 62
     7
  5
4B6
 10
-47.134968
 20
-2.260982
 30
4.0
 11
-46.90601
 21
-2.109011
 31
4.0
1001
AME_SOL
1070
     1
1071
      194
  0
LINE
  8
0
 62
     7
  5
4B7
 10
-46.906033
 20
-2.109024
 30
0.0
 11
-46.702988
 21
-1.95599
 31
0.0
1001
AME_SOL
1070
     1
1071
      193
  0
LINE
  8
0
 62
     7
  5
4B8
 10
-46.905994
 20
-2.109
 30
0.0
 11
-46.905994
 21
-2.109
 31
4.0
1001
AME_SOL
1070
     1
1071
      192
  0
LINE
  8
0
 62
     7
  5
4B9
 10
-46.906033
 20
-2.109024
 30
4.0
 11
-46.702988
 21
-1.95599
 31
4.0
1001
AME_SOL
1070
     1
1071
      191
  0
LINE
  8
0
 62
     7
  5
4BA
 10
-46.702991
 20
-1.955997
 30
0.0
 11
-46.525017
 21
-1.753024
 31
0.0
1001
AME_SOL
1070
     1
1071
      190
  0
LINE
  8
0
 62
     7
  5
4BB
 10
-46.702999
 20
-1.956
 30
0.0
 11
-46.702999
 21
-1.956
 31
4.0
1001
AME_SOL
1070
     1
1071
      189
  0
LINE
  8
0
 62
     7
  5
4BC
 10
-46.702991
 20
-1.955998
 30
4.0
 11
-46.525017
 21
-1.753024
 31
4.0
1001
AME_SOL
1070
     1
1071
      188
  0
LINE
  8
0
 62
     7
  5
4BD
 10
-46.525017
 20
-1.753019
 30
0.0
 11
-46.373005
 21
-1.550004
 31
0.0
1001
AME_SOL
1070
     1
1071
      187
  0
LINE
  8
0
 62
     7
  5
4BE
 10
-46.525002
 20
-1.753
 30
0.0
 11
-46.525002
 21
-1.753
 31
4.0
1001
AME_SOL
1070
     1
1071
      186
  0
LINE
  8
0
 62
     7
  5
4BF
 10
-46.525017
 20
-1.753019
 30
4.0
 11
-46.373005
 21
-1.550004
 31
4.0
1001
AME_SOL
1070
     1
1071
      185
  0
LINE
  8
0
 62
     7
  5
4C0
 10
-46.37299
 20
-1.549982
 30
0.0
 11
-46.245991
 21
-1.320988
 31
0.0
1001
AME_SOL
1070
     1
1071
      184
  0
LINE
  8
0
 62
     7
  5
4C1
 10
-46.373001
 20
-1.55
 30
0.0
 11
-46.373001
 21
-1.55
 31
4.0
1001
AME_SOL
1070
     1
1071
      183
  0
LINE
  8
0
 62
     7
  5
4C2
 10
-46.37299
 20
-1.549982
 30
4.0
 11
-46.245991
 21
-1.320988
 31
4.0
1001
AME_SOL
1070
     1
1071
      182
  0
LINE
  8
0
 62
     7
  5
4C3
 10
-46.245998
 20
-1.321008
 30
0.0
 11
-46.144001
 21
-1.092003
 31
0.0
1001
AME_SOL
1070
     1
1071
      181
  0
LINE
  8
0
 62
     7
  5
4C4
 10
-46.245998
 20
-1.321
 30
0.0
 11
-46.245998
 21
-1.321
 31
4.0
1001
AME_SOL
1070
     1
1071
      180
  0
LINE
  8
0
 62
     7
  5
4C5
 10
-46.245979
 20
-1.320963
 30
4.0
 11
-46.144001
 21
-1.092003
 31
4.0
1001
AME_SOL
1070
     1
1071
      179
  0
LINE
  8
0
 62
     7
  5
4C6
 10
-46.143997
 20
-1.091996
 30
0.0
 11
-46.06781
 21
-0.812316
 31
0.0
1001
AME_SOL
1070
     1
1071
      178
  0
LINE
  8
0
 62
     7
  5
4C7
 10
-46.144001
 20
-1.092
 30
0.0
 11
-46.144001
 21
-1.092
 31
4.0
1001
AME_SOL
1070
     1
1071
      177
  0
LINE
  8
0
 62
     7
  5
4C8
 10
-46.143997
 20
-1.091996
 30
4.0
 11
-46.06781
 21
-0.812316
 31
4.0
1001
AME_SOL
1070
     1
1071
      176
  0
LINE
  8
0
 62
     7
  5
4C9
 10
-46.066608
 20
-0.807877
 30
0.0
 11
-45.992004
 21
-0.533019
 31
0.0
1001
AME_SOL
1070
     1
1071
      175
  0
LINE
  8
0
 62
     7
  5
4CA
 10
-46.067997
 20
-0.813
 30
0.0
 11
-46.067997
 21
-0.813
 31
4.0
1001
AME_SOL
1070
     1
1071
      174
  0
LINE
  8
0
 62
     7
  5
4CB
 10
-46.067852
 20
-0.812461
 30
4.0
 11
-45.992004
 21
-0.533019
 31
4.0
1001
AME_SOL
1070
     1
1071
      173
  0
LINE
  8
0
 62
     7
  5
4CC
 10
-45.992004
 20
-0.533032
 30
0.0
 11
-45.966003
 21
-0.228008
 31
0.0
1001
AME_SOL
1070
     1
1071
      172
  0
LINE
  8
0
 62
     7
  5
4CD
 10
-45.991997
 20
-0.533
 30
0.0
 11
-45.991997
 21
-0.533
 31
4.0
1001
AME_SOL
1070
     1
1071
      171
  0
LINE
  8
0
 62
     7
  5
4CE
 10
-45.992004
 20
-0.533032
 30
4.0
 11
-45.966003
 21
-0.228008
 31
4.0
1001
AME_SOL
1070
     1
1071
      170
  0
LINE
  8
0
 62
     7
  5
4CF
 10
-46.017006
 20
0.279041
 30
0.0
 11
-46.068005
 21
0.533022
 31
0.0
1001
AME_SOL
1070
     1
1071
      169
  0
LINE
  8
0
 62
     7
  5
4D0
 10
-46.017006
 20
0.279041
 30
4.0
 11
-46.068005
 21
0.533022
 31
4.0
1001
AME_SOL
1070
     1
1071
      168
  0
LINE
  8
0
 62
     7
  5
4D1
 10
-46.068008
 20
0.53302
 30
0.0
 11
-46.143997
 21
0.786991
 31
0.0
1001
AME_SOL
1070
     1
1071
      167
  0
LINE
  8
0
 62
     7
  5
4D2
 10
-46.067997
 20
0.533
 30
0.0
 11
-46.067997
 21
0.533
 31
4.0
1001
AME_SOL
1070
     1
1071
      166
  0
LINE
  8
0
 62
     7
  5
4D3
 10
-46.068008
 20
0.53302
 30
4.0
 11
-46.143997
 21
0.786991
 31
4.0
1001
AME_SOL
1070
     1
1071
      165
  0
LINE
  8
0
 62
     7
  5
4D4
 10
-46.143997
 20
0.786992
 30
0.0
 11
-46.245998
 21
1.016003
 31
0.0
1001
AME_SOL
1070
     1
1071
      164
  0
LINE
  8
0
 62
     7
  5
4D5
 10
-46.144001
 20
0.787
 30
0.0
 11
-46.144001
 21
0.787
 31
4.0
1001
AME_SOL
1070
     1
1071
      163
  0
LINE
  8
0
 62
     7
  5
4D6
 10
-46.143997
 20
0.786992
 30
4.0
 11
-46.245998
 21
1.016003
 31
4.0
1001
AME_SOL
1070
     1
1071
      162
  0
LINE
  8
0
 62
     7
  5
4D7
 10
-46.245983
 20
1.01597
 30
0.0
 11
-46.373013
 21
1.219014
 31
0.0
1001
AME_SOL
1070
     1
1071
      161
  0
LINE
  8
0
 62
     7
  5
4D8
 10
-46.245998
 20
1.016
 30
0.0
 11
-46.245998
 21
1.016
 31
4.0
1001
AME_SOL
1070
     1
1071
      160
  0
LINE
  8
0
 62
     7
  5
4D9
 10
-46.245983
 20
1.01597
 30
4.0
 11
-46.373043
 21
1.219058
 31
4.0
1001
AME_SOL
1070
     1
1071
      159
  0
LINE
  8
0
 62
     7
  5
4DA
 10
-46.373001
 20
1.219
 30
0.0
 11
-46.524998
 21
1.421996
 31
0.0
1001
AME_SOL
1070
     1
1071
      158
  0
LINE
  8
0
 62
     7
  5
4DB
 10
-46.373001
 20
1.219
 30
0.0
 11
-46.373001
 21
1.219
 31
4.0
1001
AME_SOL
1070
     1
1071
      157
  0
LINE
  8
0
 62
     7
  5
4DC
 10
-46.373001
 20
1.219
 30
4.0
 11
-46.524998
 21
1.421996
 31
4.0
1001
AME_SOL
1070
     1
1071
      156
  0
LINE
  8
0
 62
     7
  5
4DD
 10
-46.524986
 20
1.421985
 30
0.0
 11
-46.702988
 21
1.625988
 31
0.0
1001
AME_SOL
1070
     1
1071
      155
  0
LINE
  8
0
 62
     7
  5
4DE
 10
-46.525002
 20
1.422
 30
0.0
 11
-46.525002
 21
1.422
 31
4.0
1001
AME_SOL
1070
     1
1071
      154
  0
LINE
  8
0
 62
     7
  5
4DF
 10
-46.524986
 20
1.421985
 30
4.0
 11
-46.702988
 21
1.625988
 31
4.0
1001
AME_SOL
1070
     1
1071
      153
  0
LINE
  8
0
 62
     7
  5
4E0
 10
-46.702984
 20
1.625984
 30
0.0
 11
-46.805023
 21
1.72702
 31
0.0
1001
AME_SOL
1070
     1
1071
      152
  0
LINE
  8
0
 62
     7
  5
4E1
 10
-46.702999
 20
1.626
 30
0.0
 11
-46.702999
 21
1.626
 31
4.0
1001
AME_SOL
1070
     1
1071
      151
  0
LINE
  8
0
 62
     7
  5
4E2
 10
-46.702984
 20
1.625984
 30
4.0
 11
-46.805023
 21
1.72702
 31
4.0
1001
AME_SOL
1070
     1
1071
      150
  0
LINE
  8
0
 62
     7
  5
4E3
 10
-46.805008
 20
1.727008
 30
0.0
 11
-46.90591
 21
1.803934
 31
0.0
1001
AME_SOL
1070
     1
1071
      149
  0
LINE
  8
0
 62
     7
  5
4E4
 10
-46.805
 20
1.727
 30
0.0
 11
-46.805
 21
1.727
 31
4.0
1001
AME_SOL
1070
     1
1071
      148
  0
LINE
  8
0
 62
     7
  5
4E5
 10
-46.805008
 20
1.727008
 30
4.0
 11
-46.90591
 21
1.803934
 31
4.0
1001
AME_SOL
1070
     1
1071
      147
  0
LINE
  8
0
 62
     7
  5
4E6
 10
-46.905819
 20
1.803867
 30
0.0
 11
-47.110016
 21
1.95601
 31
0.0
1001
AME_SOL
1070
     1
1071
      146
  0
LINE
  8
0
 62
     7
  5
4E7
 10
-46.905994
 20
1.804
 30
0.0
 11
-46.905994
 21
1.804
 31
4.0
1001
AME_SOL
1070
     1
1071
      145
  0
LINE
  8
0
 62
     7
  5
4E8
 10
-46.905819
 20
1.803867
 30
4.0
 11
-47.110016
 21
1.95601
 31
4.0
1001
AME_SOL
1070
     1
1071
      144
  0
LINE
  8
0
 62
     7
  5
4E9
 10
-47.109997
 20
1.955995
 30
0.0
 11
-47.237022
 21
2.032011
 31
0.0
1001
AME_SOL
1070
     1
1071
      143
  0
LINE
  8
0
 62
     7
  5
4EA
 10
-47.110001
 20
1.956
 30
0.0
 11
-47.110001
 21
1.956
 31
4.0
1001
AME_SOL
1070
     1
1071
      142
  0
LINE
  8
0
 62
     7
  5
4EB
 10
-47.109997
 20
1.955995
 30
4.0
 11
-47.237022
 21
2.032011
 31
4.0
1001
AME_SOL
1070
     1
1071
      141
  0
LINE
  8
0
 62
     7
  5
4EC
 10
-47.49099
 20
2.158994
 30
0.0
 11
-47.618011
 21
2.210004
 31
0.0
1001
AME_SOL
1070
     1
1071
      140
  0
LINE
  8
0
 62
     7
  5
4ED
 10
-47.49099
 20
2.158994
 30
4.0
 11
-47.618011
 21
2.210004
 31
4.0
1001
AME_SOL
1070
     1
1071
      139
  0
LINE
  8
0
 62
     7
  5
4EE
 10
-47.618031
 20
2.210011
 30
0.0
 11
-47.769981
 21
2.260995
 31
0.0
1001
AME_SOL
1070
     1
1071
      138
  0
LINE
  8
0
 62
     7
  5
4EF
 10
-47.618
 20
2.21
 30
0.0
 11
-47.618
 21
2.21
 31
4.0
1001
AME_SOL
1070
     1
1071
      137
  0
LINE
  8
0
 62
     7
  5
4F0
 10
-47.618031
 20
2.210011
 30
4.0
 11
-47.769981
 21
2.260995
 31
4.0
1001
AME_SOL
1070
     1
1071
      136
  0
LINE
  8
0
 62
     7
  5
4F1
 10
-48.075012
 20
2.337002
 30
0.0
 11
-48.227989
 21
2.362998
 31
0.0
1001
AME_SOL
1070
     1
1071
      135
  0
LINE
  8
0
 62
     7
  5
4F2
 10
-48.075012
 20
2.337003
 30
4.0
 11
-48.227989
 21
2.362998
 31
4.0
1001
AME_SOL
1070
     1
1071
      134
  0
LINE
  8
0
 62
     7
  5
4F3
 10
-48.227989
 20
2.362999
 30
0.0
 11
-48.405994
 21
2.388
 31
0.0
1001
AME_SOL
1070
     1
1071
      133
  0
LINE
  8
0
 62
     7
  5
4F4
 10
-48.228001
 20
2.363
 30
0.0
 11
-48.228001
 21
2.363
 31
4.0
1001
AME_SOL
1070
     1
1071
      132
  0
LINE
  8
0
 62
     7
  5
4F5
 10
-48.227989
 20
2.362999
 30
4.0
 11
-48.405994
 21
2.388
 31
4.0
1001
AME_SOL
1070
     1
1071
      131
  0
LINE
  8
0
 62
     7
  5
4F6
 10
-48.760998
 20
2.413
 30
0.0
 11
-50.005997
 21
2.413
 31
0.0
1001
AME_SOL
1070
     1
1071
      130
  0
LINE
  8
0
 62
     7
  5
4F7
 10
-48.761002
 20
2.413
 30
4.0
 11
-50.005997
 21
2.413
 31
4.0
1001
AME_SOL
1070
     1
1071
      129
  0
LINE
  8
0
 62
     7
  5
4F8
 10
-50.006001
 20
2.413
 30
0.0
 11
-50.006001
 21
-2.744
 31
0.0
1001
AME_SOL
1070
     1
1071
      128
  0
LINE
  8
0
 62
     7
  5
4F9
 10
-50.006001
 20
-2.744
 30
0.0
 11
-50.006001
 21
-2.744
 31
4.0
1001
AME_SOL
1070
     1
1071
      127
  0
LINE
  8
0
 62
     7
  5
4FA
 10
-50.006001
 20
2.413
 30
0.0
 11
-50.006001
 21
2.413
 31
4.0
1001
AME_SOL
1070
     1
1071
      126
  0
LINE
  8
0
 62
     7
  5
4FB
 10
-50.006001
 20
2.413
 30
4.0
 11
-50.006001
 21
-2.744
 31
4.0
1001
AME_SOL
1070
     1
1071
      125
  0
LINE
  8
0
 62
     7
  5
4FC
 10
-48.760994
 20
2.413
 30
0.0
 11
-48.582996
 21
2.388
 31
0.0
1001
AME_SOL
1070
     1
1071
      124
  0
LINE
  8
0
 62
     7
  5
4FD
 10
-48.761002
 20
2.413
 30
0.0
 11
-48.761002
 21
2.413
 31
4.0
1001
AME_SOL
1070
     1
1071
      123
  0
LINE
  8
0
 62
     7
  5
4FE
 10
-48.761002
 20
2.413
 30
4.0
 11
-48.582996
 21
2.388
 31
4.0
1001
AME_SOL
1070
     1
1071
      122
  0
LINE
  8
0
 62
     7
  5
4FF
 10
-48.583
 20
2.388
 30
0.0
 11
-48.406002
 21
2.388
 31
0.0
1001
AME_SOL
1070
     1
1071
      121
  0
LINE
  8
0
 62
     7
  5
500
 10
-48.405998
 20
2.388
 30
0.0
 11
-48.405998
 21
2.388
 31
4.0
1001
AME_SOL
1070
     1
1071
      120
  0
LINE
  8
0
 62
     7
  5
501
 10
-48.582996
 20
2.388
 30
0.0
 11
-48.582996
 21
2.388
 31
4.0
1001
AME_SOL
1070
     1
1071
      119
  0
LINE
  8
0
 62
     7
  5
502
 10
-48.583
 20
2.388
 30
4.0
 11
-48.405994
 21
2.388
 31
4.0
1001
AME_SOL
1070
     1
1071
      118
  0
LINE
  8
0
 62
     7
  5
503
 10
-48.074989
 20
2.336997
 30
0.0
 11
-47.922997
 21
2.286
 31
0.0
1001
AME_SOL
1070
     1
1071
      117
  0
LINE
  8
0
 62
     7
  5
504
 10
-48.075001
 20
2.337
 30
0.0
 11
-48.075001
 21
2.337
 31
4.0
1001
AME_SOL
1070
     1
1071
      116
  0
LINE
  8
0
 62
     7
  5
505
 10
-48.074997
 20
2.337
 30
4.0
 11
-47.923
 21
2.286001
 31
4.0
1001
AME_SOL
1070
     1
1071
      115
  0
LINE
  8
0
 62
     7
  5
506
 10
-47.923
 20
2.286
 30
0.0
 11
-47.770008
 21
2.261002
 31
0.0
1001
AME_SOL
1070
     1
1071
      114
  0
LINE
  8
0
 62
     7
  5
507
 10
-47.769997
 20
2.261
 30
0.0
 11
-47.769997
 21
2.261
 31
4.0
1001
AME_SOL
1070
     1
1071
      113
  0
LINE
  8
0
 62
     7
  5
508
 10
-47.923
 20
2.286
 30
0.0
 11
-47.923
 21
2.286
 31
4.0
1001
AME_SOL
1070
     1
1071
      112
  0
LINE
  8
0
 62
     7
  5
509
 10
-47.923
 20
2.286
 30
4.0
 11
-47.769997
 21
2.261
 31
4.0
1001
AME_SOL
1070
     1
1071
      111
  0
LINE
  8
0
 62
     7
  5
50A
 10
-47.491005
 20
2.159003
 30
0.0
 11
-47.363991
 21
2.082996
 31
0.0
1001
AME_SOL
1070
     1
1071
      110
  0
LINE
  8
0
 62
     7
  5
50B
 10
-47.491001
 20
2.159
 30
0.0
 11
-47.491001
 21
2.159
 31
4.0
1001
AME_SOL
1070
     1
1071
      109
  0
LINE
  8
0
 62
     7
  5
50C
 10
-47.491005
 20
2.159003
 30
4.0
 11
-47.363991
 21
2.082996
 31
4.0
1001
AME_SOL
1070
     1
1071
      108
  0
LINE
  8
0
 62
     7
  5
50D
 10
-47.363991
 20
2.082997
 30
0.0
 11
-47.236996
 21
2.031998
 31
0.0
1001
AME_SOL
1070
     1
1071
      107
  0
LINE
  8
0
 62
     7
  5
50E
 10
-47.237
 20
2.032
 30
0.0
 11
-47.237
 21
2.032
 31
4.0
1001
AME_SOL
1070
     1
1071
      106
  0
LINE
  8
0
 62
     7
  5
50F
 10
-47.363995
 20
2.083
 30
0.0
 11
-47.363995
 21
2.083
 31
4.0
1001
AME_SOL
1070
     1
1071
      105
  0
LINE
  8
0
 62
     7
  5
510
 10
-47.363991
 20
2.082997
 30
4.0
 11
-47.236996
 21
2.031998
 31
4.0
1001
AME_SOL
1070
     1
1071
      104
  0
LINE
  8
0
 62
     7
  5
511
 10
-46.016705
 20
0.276038
 30
0.0
 11
-45.991928
 21
0.024316
 31
0.0
1001
AME_SOL
1070
     1
1071
      103
  0
LINE
  8
0
 62
     7
  5
512
 10
-46.016998
 20
0.279
 30
0.0
 11
-46.016998
 21
0.279
 31
4.0
1001
AME_SOL
1070
     1
1071
      102
  0
LINE
  8
0
 62
     7
  5
513
 10
-46.016899
 20
0.278031
 30
4.0
 11
-45.991928
 21
0.024316
 31
4.0
1001
AME_SOL
1070
     1
1071
      101
  0
LINE
  8
0
 62
     7
  5
514
 10
-45.99189
 20
0.023925
 30
0.0
 11
-45.966129
 21
-0.226749
 31
0.0
1001
AME_SOL
1070
     1
1071
      100
  0
LINE
  8
0
 62
     7
  5
515
 10
-45.966
 20
-0.228
 30
0.0
 11
-45.966
 21
-0.228
 31
4.0
1001
AME_SOL
1070
     1
1071
       99
  0
LINE
  8
0
 62
     7
  5
516
 10
-45.991997
 20
0.025
 30
0.0
 11
-45.991997
 21
0.025
 31
4.0
1001
AME_SOL
1070
     1
1071
       98
  0
LINE
  8
0
 62
     7
  5
517
 10
-45.99189
 20
0.023925
 30
4.0
 11
-45.966129
 21
-0.226749
 31
4.0
1001
AME_SOL
1070
     1
1071
       97
  0
LINE
  8
0
 62
     7
  5
518
 10
-48.125992
 20
-2.668
 30
0.0
 11
-48.431
 21
-2.693
 31
0.0
1001
AME_SOL
1070
     1
1071
       96
  0
LINE
  8
0
 62
     7
  5
519
 10
-48.125996
 20
-2.668
 30
0.0
 11
-48.125996
 21
-2.668
 31
4.0
1001
AME_SOL
1070
     1
1071
       95
  0
LINE
  8
0
 62
     7
  5
51A
 10
-48.125984
 20
-2.667999
 30
4.0
 11
-48.430992
 21
-2.692999
 31
4.0
1001
AME_SOL
1070
     1
1071
       94
  0
LINE
  8
0
 62
     7
  5
51B
 10
-48.430996
 20
-2.693
 30
0.0
 11
-48.735992
 21
-2.743999
 31
0.0
1001
AME_SOL
1070
     1
1071
       93
  0
LINE
  8
0
 62
     7
  5
51C
 10
-48.736
 20
-2.744
 30
0.0
 11
-48.736
 21
-2.744
 31
4.0
1001
AME_SOL
1070
     1
1071
       92
  0
LINE
  8
0
 62
     7
  5
51D
 10
-48.430996
 20
-2.692999
 30
4.0
 11
-48.735996
 21
-2.743999
 31
4.0
1001
AME_SOL
1070
     1
1071
       91
  0
LINE
  8
0
 62
     7
  5
51E
 10
-48.431
 20
-2.693
 30
0.0
 11
-48.431
 21
-2.693
 31
4.0
1001
AME_SOL
1070
     1
1071
       90
  0
ENDBLK
  8
0
  5
51F
  0
BLOCK
  8
0
  5
527
  2
*U6
 70
    65
 10
0.0
 20
0.0
 30
0.0
  1
*U
  0
POLYLINE
  8
0
 62
     7
  5
528
 66
     1
 10
0.0
 20
0.0
 30
0.0
 70
    64
  0
VERTEX
  8
0
  5
529
 10
-48.760998
 20
2.413
 30
0.0
 70
   192
  0
VERTEX
  8
0
  5
52A
 10
-48.405998
 20
2.388
 30
0.0
 70
   192
  0
VERTEX
  8
0
  5
52B
 10
-47.922993
 20
2.844999
 30
0.0
 70
   192
  0
VERTEX
  8
0
  5
52C
 10
-48.227993
 20
2.362998
 30
0.0
 70
   192
  0
VERTEX
  8
0
  5
52D
 10
-50.005997
 20
2.413001
 30
0.0
 70
   192
  0
VERTEX
  8
0
  5
52E
 10
-50.591
 20
2.947
 30
0.0
 70
   192
  0
VERTEX
  8
0
  5
52F
 10
-46.626972
 20
2.311984
 30
0.0
 70
   192
  0
VERTEX
  8
0
  5
530
 10
-48.075005
 20
2.337
 30
0.0
 70
   192
  0
VERTEX
  8
0
  5
531
 10
-47.769997
 20
2.260999
 30
0.0
 70
   192
  0
VERTEX
  8
0
  5
532
 10
-47.618023
 20
2.210008
 30
0.0
 70
   192
  0
VERTEX
  8
0
  5
533
 10
-50.006001
 20
-2.744
 30
0.0
 70
   192
  0
VERTEX
  8
0
  5
534
 10
-50.591
 20
-3.252
 30
0.0
 70
   192
  0
VERTEX
  8
0
  5
535
 10
-47.058571
 20
2.565784
 30
0.0
 70
   192
  0
VERTEX
  8
0
  5
536
 10
-46.068012
 20
1.778017
 30
0.0
 70
   192
  0
VERTEX
  8
0
  5
537
 10
-47.490997
 20
2.158998
 30
0.0
 70
   192
  0
VERTEX
  8
0
  5
538
 10
-47.237011
 20
2.032004
 30
0.0
 70
   192
  0
VERTEX
  8
0
  5
539
 10
-47.110004
 20
1.956003
 30
0.0
 70
   192
  0
VERTEX
  8
0
  5
53A
 10
-46.905865
 20
1.803901
 30
0.0
 70
   192
  0
VERTEX
  8
0
  5
53B
 10
-46.805016
 20
1.727014
 30
0.0
 70
   192
  0
VERTEX
  8
0
  5
53C
 10
-45.508999
 20
0.710999
 30
0.0
 70
   192
  0
VERTEX
  8
0
  5
53D
 10
-46.702988
 20
1.625986
 30
0.0
 70
   192
  0
VERTEX
  8
0
  5
53E
 10
-48.735996
 20
-2.743999
 30
0.0
 70
   192
  0
VERTEX
  8
0
  5
53F
 10
-48.431
 20
-2.693
 30
0.0
 70
   192
  0
VERTEX
  8
0
  5
540
 10
-48.506996
 20
2.922
 30
0.0
 70
   192
  0
VERTEX
  8
0
  5
541
 10
-47.566994
 20
2.743999
 30
0.0
 70
   192
  0
VERTEX
  8
0
  5
542
 10
-46.906006
 20
2.49
 30
0.0
 70
   192
  0
VERTEX
  8
0
  5
543
 10
-46.397999
 20
2.108999
 30
0.0
 70
   192
  0
VERTEX
  8
0
  5
544
 10
-45.737007
 20
1.295014
 30
0.0
 70
   192
  0
VERTEX
  8
0
  5
545
 10
-46.524994
 20
1.42199
 30
0.0
 70
   192
  0
VERTEX
  8
0
  5
546
 10
-45.407028
 20
0.101306
 30
0.0
 70
   192
  0
VERTEX
  8
0
  5
547
 10
-46.373009
 20
1.219007
 30
0.0
 70
   192
  0
VERTEX
  8
0
  5
548
 10
-46.245991
 20
1.015986
 30
0.0
 70
   192
  0
VERTEX
  8
0
  5
549
 10
-45.407001
 20
-0.559004
 30
0.0
 70
   192
  0
VERTEX
  8
0
  5
54A
 10
-46.144001
 20
0.786992
 30
0.0
 70
   192
  0
VERTEX
  8
0
  5
54B
 10
-45.534004
 20
-1.193998
 30
0.0
 70
   192
  0
VERTEX
  8
0
  5
54C
 10
-46.068005
 20
0.533021
 30
0.0
 70
   192
  0
VERTEX
  8
0
  5
54D
 10
-46.016853
 20
0.27754
 30
0.0
 70
   192
  0
VERTEX
  8
0
  5
54E
 10
-45.966064
 20
-0.227379
 30
0.0
 70
   192
  0
VERTEX
  8
0
  5
54F
 10
-45.813995
 20
-1.752988
 30
0.0
 70
   192
  0
VERTEX
  8
0
  5
550
 10
-45.992008
 20
-0.533026
 30
0.0
 70
   192
  0
VERTEX
  8
0
  5
551
 10
-46.169029
 20
-2.236029
 30
0.0
 70
   192
  0
VERTEX
  8
0
  5
552
 10
-46.499996
 20
-2.539994
 30
0.0
 70
   192
  0
VERTEX
  8
0
  5
553
 10
-46.067211
 20
-0.810096
 30
0.0
 70
   192
  0
VERTEX
  8
0
  5
554
 10
-46.144001
 20
-1.091999
 30
0.0
 70
   192
  0
VERTEX
  8
0
  5
555
 10
-47.999039
 20
-3.201007
 30
0.0
 70
   192
  0
VERTEX
  8
0
  5
556
 10
-48.151024
 20
-3.227004
 30
0.0
 70
   192
  0
VERTEX
  8
0
  5
557
 10
-48.304001
 20
-3.252
 30
0.0
 70
   192
  0
VERTEX
  8
0
  5
558
 10
-48.709995
 20
2.947
 30
0.0
 70
   192
  0
VERTEX
  8
0
  5
559
 10
-48.303997
 20
2.921999
 30
0.0
 70
   192
  0
VERTEX
  8
0
  5
55A
 10
-48.101006
 20
2.896001
 30
0.0
 70
   192
  0
VERTEX
  8
0
  5
55B
 10
-47.71899
 20
2.819996
 30
0.0
 70
   192
  0
VERTEX
  8
0
  5
55C
 10
-47.210495
 20
2.641747
 30
0.0
 70
   192
  0
VERTEX
  8
0
  5
55D
 10
-46.778992
 20
2.412992
 30
0.0
 70
   192
  0
VERTEX
  8
0
  5
55E
 10
-46.500015
 20
2.210009
 30
0.0
 70
   192
  0
VERTEX
  8
0
  5
55F
 10
-46.271
 20
2.007001
 30
0.0
 70
   192
  0
VERTEX
  8
0
  5
560
 10
-45.889999
 20
1.549996
 30
0.0
 70
   192
  0
VERTEX
  8
0
  5
561
 10
-45.609989
 20
1.015971
 30
0.0
 70
   192
  0
VERTEX
  8
0
  5
562
 10
-45.432995
 20
0.405984
 30
0.0
 70
   192
  0
VERTEX
  8
0
  5
563
 10
-45.382
 20
-0.22801
 30
0.0
 70
   192
  0
VERTEX
  8
0
  5
564
 10
-45.458
 20
-0.889014
 30
0.0
 70
   192
  0
VERTEX
  8
0
  5
565
 10
-45.660995
 20
-1.472988
 30
0.0
 70
   192
  0
VERTEX
  8
0
  5
566
 10
-45.965996
 20
-2.006994
 30
0.0
 70
   192
  0
VERTEX
  8
0
  5
567
 10
-46.372986
 20
-2.438985
 30
0.0
 70
   192
  0
VERTEX
  8
0
  5
568
 10
-46.601288
 20
-2.642168
 30
0.0
 70
   192
  0
VERTEX
  8
0
  5
569
 10
-46.728096
 20
-2.718055
 30
0.0
 70
   192
  0
VERTEX
  8
0
  5
56A
 10
-46.85606
 20
-2.795036
 30
0.0
 70
   192
  0
VERTEX
  8
0
  5
56B
 10
-46.245995
 20
-1.320998
 30
0.0
 70
   192
  0
VERTEX
  8
0
  5
56C
 10
-47.008015
 20
-2.871011
 30
0.0
 70
   192
  0
VERTEX
  8
0
  5
56D
 10
-47.134983
 20
-2.946991
 30
0.0
 70
   192
  0
VERTEX
  8
0
  5
56E
 10
-46.372997
 20
-1.549993
 30
0.0
 70
   192
  0
VERTEX
  8
0
  5
56F
 10
-47.262024
 20
-2.998009
 30
0.0
 70
   192
  0
VERTEX
  8
0
  5
570
 10
-47.415493
 20
-3.049166
 30
0.0
 70
   192
  0
VERTEX
  8
0
  5
571
 10
-46.525017
 20
-1.753021
 30
0.0
 70
   192
  0
VERTEX
  8
0
  5
572
 10
-47.567013
 20
-3.100002
 30
0.0
 70
   192
  0
VERTEX
  8
0
  5
573
 10
-47.694004
 20
-3.15
 30
0.0
 70
   192
  0
VERTEX
  8
0
  5
574
 10
-46.702988
 20
-1.955994
 30
0.0
 70
   192
  0
VERTEX
  8
0
  5
575
 10
-47.847004
 20
-3.176001
 30
0.0
 70
   192
  0
VERTEX
  8
0
  5
576
 10
-46.906021
 20
-2.109017
 30
0.0
 70
   192
  0
VERTEX
  8
0
  5
577
 10
-47.134979
 20
-2.260989
 30
0.0
 70
   192
  0
VERTEX
  8
0
  5
578
 10
-47.364014
 20
-2.388008
 30
0.0
 70
   192
  0
VERTEX
  8
0
  5
579
 10
-47.591969
 20
-2.489987
 30
0.0
 70
   192
  0
VERTEX
  8
0
  5
57A
 10
-47.847004
 20
-2.591002
 30
0.0
 70
   192
  0
VERTEX
  8
0
  5
57B
 10
-48.125992
 20
-2.668
 30
0.0
 70
   192
  0
VERTEX
  8
0
  5
57C
 10
-45.991913
 20
0.024121
 30
0.0
 70
   192
  0
VERTEX
  8
0
  5
57D
 10
-47.363995
 20
2.082996
 30
0.0
 70
   192
  0
VERTEX
  8
0
  5
57E
 10
-47.922997
 20
2.286001
 30
0.0
 70
   192
  0
VERTEX
  8
0
  5
57F
 10
-48.583
 20
2.388
 30
0.0
 70
   192
  0
VERTEX
  8
0
 62
     7
  5
580
 10
0.0
 20
0.0
 30
0.0
 70
   128
 71
    -1
 72
    -3
 73
    -2
  0
VERTEX
  8
0
 62
     7
  5
581
 10
0.0
 20
0.0
 30
0.0
 70
   128
 71
    -2
 72
    -3
 73
     4
  0
VERTEX
  8
0
 62
     7
  5
582
 10
0.0
 20
0.0
 30
0.0
 70
   128
 71
    -3
 72
     1
 73
    -5
  0
VERTEX
  8
0
 62
     7
  5
583
 10
0.0
 20
0.0
 30
0.0
 70
   128
 71
    -3
 72
    -5
 73
    -6
  0
VERTEX
  8
0
 62
     7
  5
584
 10
0.0
 20
0.0
 30
0.0
 70
   128
 71
    -4
 72
    -3
 73
    -7
  0
VERTEX
  8
0
 62
     7
  5
585
 10
0.0
 20
0.0
 30
0.0
 70
   128
 71
    -4
 72
    -7
 73
     8
  0
VERTEX
  8
0
 62
     7
  5
586
 10
0.0
 20
0.0
 30
0.0
 70
   128
 71
    -8
 72
    -7
 73
    -9
  0
VERTEX
  8
0
 62
     7
  5
587
 10
0.0
 20
0.0
 30
0.0
 70
   128
 71
    -9
 72
    -7
 73
    10
  0
VERTEX
  8
0
 62
     7
  5
588
 10
0.0
 20
0.0
 30
0.0
 70
   128
 71
    -6
 72
     5
 73
   -11
  0
VERTEX
  8
0
 62
     7
  5
589
 10
0.0
 20
0.0
 30
0.0
 70
   128
 71
    -6
 72
   -11
 73
    12
  0
VERTEX
  8
0
 62
     7
  5
58A
 10
0.0
 20
0.0
 30
0.0
 70
   128
 71
    -7
 72
    -3
 73
   -13
  0
VERTEX
  8
0
 62
     7
  5
58B
 10
0.0
 20
0.0
 30
0.0
 70
   128
 71
   -10
 72
    -7
 73
   -14
  0
VERTEX
  8
0
 62
     7
  5
58C
 10
0.0
 20
0.0
 30
0.0
 70
   128
 71
   -10
 72
   -14
 73
    15
  0
VERTEX
  8
0
 62
     7
  5
58D
 10
0.0
 20
0.0
 30
0.0
 70
   128
 71
   -15
 72
   -14
 73
   -16
  0
VERTEX
  8
0
 62
     7
  5
58E
 10
0.0
 20
0.0
 30
0.0
 70
   128
 71
   -16
 72
   -14
 73
    17
  0
VERTEX
  8
0
 62
     7
  5
58F
 10
0.0
 20
0.0
 30
0.0
 70
   128
 71
   -17
 72
   -14
 73
    18
  0
VERTEX
  8
0
 62
     7
  5
590
 10
0.0
 20
0.0
 30
0.0
 70
   128
 71
   -18
 72
   -14
 73
    19
  0
VERTEX
  8
0
 62
     7
  5
591
 10
0.0
 20
0.0
 30
0.0
 70
   128
 71
   -19
 72
   -14
 73
   -20
  0
VERTEX
  8
0
 62
     7
  5
592
 10
0.0
 20
0.0
 30
0.0
 70
   128
 71
   -19
 72
   -20
 73
    21
  0
VERTEX
  8
0
 62
     7
  5
593
 10
0.0
 20
0.0
 30
0.0
 70
   128
 71
   -12
 72
    11
 73
   -22
  0
VERTEX
  8
0
 62
     7
  5
594
 10
0.0
 20
0.0
 30
0.0
 70
   128
 71
   -12
 72
    22
 73
   -23
  0
VERTEX
  8
0
 62
     7
  5
595
 10
0.0
 20
0.0
 30
0.0
 70
   128
 71
    -3
 72
    -6
 73
   -24
  0
VERTEX
  8
0
 62
     7
  5
596
 10
0.0
 20
0.0
 30
0.0
 70
   128
 71
   -13
 72
    -3
 73
   -25
  0
VERTEX
  8
0
 62
     7
  5
597
 10
0.0
 20
0.0
 30
0.0
 70
   128
 71
    -7
 72
    13
 73
   -26
  0
VERTEX
  8
0
 62
     7
  5
598
 10
0.0
 20
0.0
 30
0.0
 70
   128
 71
   -14
 72
    -7
 73
   -27
  0
VERTEX
  8
0
 62
     7
  5
599
 10
0.0
 20
0.0
 30
0.0
 70
   128
 71
   -20
 72
   -14
 73
   -28
  0
VERTEX
  8
0
 62
     7
  5
59A
 10
0.0
 20
0.0
 30
0.0
 70
   128
 71
   -21
 72
   -20
 73
    29
  0
VERTEX
  8
0
 62
     7
  5
59B
 10
0.0
 20
0.0
 30
0.0
 70
   128
 71
   -29
 72
   -20
 73
   -30
  0
VERTEX
  8
0
 62
     7
  5
59C
 10
0.0
 20
0.0
 30
0.0
 70
   128
 71
   -29
 72
   -30
 73
    31
  0
VERTEX
  8
0
 62
     7
  5
59D
 10
0.0
 20
0.0
 30
0.0
 70
   128
 71
   -31
 72
   -30
 73
    32
  0
VERTEX
  8
0
 62
     7
  5
59E
 10
0.0
 20
0.0
 30
0.0
 70
   128
 71
   -32
 72
   -30
 73
   -33
  0
VERTEX
  8
0
 62
     7
  5
59F
 10
0.0
 20
0.0
 30
0.0
 70
   128
 71
   -32
 72
   -33
 73
    34
  0
VERTEX
  8
0
 62
     7
  5
5A0
 10
0.0
 20
0.0
 30
0.0
 70
   128
 71
   -34
 72
   -33
 73
   -35
  0
VERTEX
  8
0
 62
     7
  5
5A1
 10
0.0
 20
0.0
 30
0.0
 70
   128
 71
   -34
 72
   -35
 73
    36
  0
VERTEX
  8
0
 62
     7
  5
5A2
 10
0.0
 20
0.0
 30
0.0
 70
   128
 71
   -36
 72
   -35
 73
    37
  0
VERTEX
  8
0
 62
     7
  5
5A3
 10
0.0
 20
0.0
 30
0.0
 70
   128
 71
   -37
 72
   -35
 73
   -38
  0
VERTEX
  8
0
 62
     7
  5
5A4
 10
0.0
 20
0.0
 30
0.0
 70
   128
 71
   -38
 72
   -35
 73
   -39
  0
VERTEX
  8
0
 62
     7
  5
5A5
 10
0.0
 20
0.0
 30
0.0
 70
   128
 71
   -38
 72
   -39
 73
    40
  0
VERTEX
  8
0
 62
     7
  5
5A6
 10
0.0
 20
0.0
 30
0.0
 70
   128
 71
   -40
 72
   -39
 73
   -41
  0
VERTEX
  8
0
 62
     7
  5
5A7
 10
0.0
 20
0.0
 30
0.0
 70
   128
 71
   -40
 72
   -41
 73
   -42
  0
VERTEX
  8
0
 62
     7
  5
5A8
 10
0.0
 20
0.0
 30
0.0
 70
   128
 71
   -40
 72
   -42
 73
    43
  0
VERTEX
  8
0
 62
     7
  5
5A9
 10
0.0
 20
0.0
 30
0.0
 70
   128
 71
   -43
 72
   -42
 73
    44
  0
VERTEX
  8
0
 62
     7
  5
5AA
 10
0.0
 20
0.0
 30
0.0
 70
   128
 71
   -12
 72
   -23
 73
   -45
  0
VERTEX
  8
0
 62
     7
  5
5AB
 10
0.0
 20
0.0
 30
0.0
 70
   128
 71
   -12
 72
    45
 73
   -46
  0
VERTEX
  8
0
 62
     7
  5
5AC
 10
0.0
 20
0.0
 30
0.0
 70
   128
 71
   -12
 72
    46
 73
    47
  0
VERTEX
  8
0
 62
     7
  5
5AD
 10
0.0
 20
0.0
 30
0.0
 70
   128
 71
   -24
 72
     6
 73
    48
  0
VERTEX
  8
0
 62
     7
  5
5AE
 10
0.0
 20
0.0
 30
0.0
 70
   128
 71
    -3
 72
    24
 73
   -49
  0
VERTEX
  8
0
 62
     7
  5
5AF
 10
0.0
 20
0.0
 30
0.0
 70
   128
 71
    -3
 72
    49
 73
    50
  0
VERTEX
  8
0
 62
     7
  5
5B0
 10
0.0
 20
0.0
 30
0.0
 70
   128
 71
   -25
 72
     3
 73
    51
  0
VERTEX
  8
0
 62
     7
  5
5B1
 10
0.0
 20
0.0
 30
0.0
 70
   128
 71
   -13
 72
    25
 73
    52
  0
VERTEX
  8
0
 62
     7
  5
5B2
 10
0.0
 20
0.0
 30
0.0
 70
   128
 71
    -7
 72
    26
 73
    53
  0
VERTEX
  8
0
 62
     7
  5
5B3
 10
0.0
 20
0.0
 30
0.0
 70
   128
 71
   -27
 72
     7
 73
    54
  0
VERTEX
  8
0
 62
     7
  5
5B4
 10
0.0
 20
0.0
 30
0.0
 70
   128
 71
   -14
 72
    27
 73
    55
  0
VERTEX
  8
0
 62
     7
  5
5B5
 10
0.0
 20
0.0
 30
0.0
 70
   128
 71
   -28
 72
    14
 73
    56
  0
VERTEX
  8
0
 62
     7
  5
5B6
 10
0.0
 20
0.0
 30
0.0
 70
   128
 71
   -20
 72
    28
 73
    57
  0
VERTEX
  8
0
 62
     7
  5
5B7
 10
0.0
 20
0.0
 30
0.0
 70
   128
 71
   -30
 72
    20
 73
    58
  0
VERTEX
  8
0
 62
     7
  5
5B8
 10
0.0
 20
0.0
 30
0.0
 70
   128
 71
   -33
 72
    30
 73
    59
  0
VERTEX
  8
0
 62
     7
  5
5B9
 10
0.0
 20
0.0
 30
0.0
 70
   128
 71
   -35
 72
    33
 73
    60
  0
VERTEX
  8
0
 62
     7
  5
5BA
 10
0.0
 20
0.0
 30
0.0
 70
   128
 71
   -39
 72
    35
 73
    61
  0
VERTEX
  8
0
 62
     7
  5
5BB
 10
0.0
 20
0.0
 30
0.0
 70
   128
 71
   -41
 72
    39
 73
    62
  0
VERTEX
  8
0
 62
     7
  5
5BC
 10
0.0
 20
0.0
 30
0.0
 70
   128
 71
   -42
 72
    41
 73
    63
  0
VERTEX
  8
0
 62
     7
  5
5BD
 10
0.0
 20
0.0
 30
0.0
 70
   128
 71
   -44
 72
    42
 73
   -64
  0
VERTEX
  8
0
 62
     7
  5
5BE
 10
0.0
 20
0.0
 30
0.0
 70
   128
 71
   -44
 72
    64
 73
   -65
  0
VERTEX
  8
0
 62
     7
  5
5BF
 10
0.0
 20
0.0
 30
0.0
 70
   128
 71
   -44
 72
    65
 73
   -66
  0
VERTEX
  8
0
 62
     7
  5
5C0
 10
0.0
 20
0.0
 30
0.0
 70
   128
 71
   -44
 72
   -66
 73
    67
  0
VERTEX
  8
0
 62
     7
  5
5C1
 10
0.0
 20
0.0
 30
0.0
 70
   128
 71
   -67
 72
    66
 73
   -68
  0
VERTEX
  8
0
 62
     7
  5
5C2
 10
0.0
 20
0.0
 30
0.0
 70
   128
 71
   -67
 72
    68
 73
   -69
  0
VERTEX
  8
0
 62
     7
  5
5C3
 10
0.0
 20
0.0
 30
0.0
 70
   128
 71
   -67
 72
   -69
 73
    70
  0
VERTEX
  8
0
 62
     7
  5
5C4
 10
0.0
 20
0.0
 30
0.0
 70
   128
 71
   -70
 72
    69
 73
   -71
  0
VERTEX
  8
0
 62
     7
  5
5C5
 10
0.0
 20
0.0
 30
0.0
 70
   128
 71
   -70
 72
    71
 73
   -72
  0
VERTEX
  8
0
 62
     7
  5
5C6
 10
0.0
 20
0.0
 30
0.0
 70
   128
 71
   -70
 72
   -72
 73
    73
  0
VERTEX
  8
0
 62
     7
  5
5C7
 10
0.0
 20
0.0
 30
0.0
 70
   128
 71
   -73
 72
    72
 73
   -74
  0
VERTEX
  8
0
 62
     7
  5
5C8
 10
0.0
 20
0.0
 30
0.0
 70
   128
 71
   -73
 72
    74
 73
   -75
  0
VERTEX
  8
0
 62
     7
  5
5C9
 10
0.0
 20
0.0
 30
0.0
 70
   128
 71
   -73
 72
   -75
 73
    76
  0
VERTEX
  8
0
 62
     7
  5
5CA
 10
0.0
 20
0.0
 30
0.0
 70
   128
 71
   -76
 72
    75
 73
   -77
  0
VERTEX
  8
0
 62
     7
  5
5CB
 10
0.0
 20
0.0
 30
0.0
 70
   128
 71
   -76
 72
    77
 73
   -45
  0
VERTEX
  8
0
 62
     7
  5
5CC
 10
0.0
 20
0.0
 30
0.0
 70
   128
 71
   -76
 72
   -45
 73
    78
  0
VERTEX
  8
0
 62
     7
  5
5CD
 10
0.0
 20
0.0
 30
0.0
 70
   128
 71
   -78
 72
   -45
 73
    79
  0
VERTEX
  8
0
 62
     7
  5
5CE
 10
0.0
 20
0.0
 30
0.0
 70
   128
 71
   -79
 72
   -45
 73
    80
  0
VERTEX
  8
0
 62
     7
  5
5CF
 10
0.0
 20
0.0
 30
0.0
 70
   128
 71
   -80
 72
   -45
 73
    81
  0
VERTEX
  8
0
 62
     7
  5
5D0
 10
0.0
 20
0.0
 30
0.0
 70
   128
 71
   -81
 72
   -45
 73
    82
  0
VERTEX
  8
0
 62
     7
  5
5D1
 10
0.0
 20
0.0
 30
0.0
 70
   128
 71
   -82
 72
   -45
 73
    83
  0
VERTEX
  8
0
 62
     7
  5
5D2
 10
0.0
 20
0.0
 30
0.0
 70
   128
 71
   -83
 72
   -45
 73
    23
  0
VERTEX
  8
0
 62
     7
  5
5D3
 10
0.0
 20
0.0
 30
0.0
 70
   128
 71
   -37
 72
    38
 73
    84
  0
VERTEX
  8
0
 62
     7
  5
5D4
 10
0.0
 20
0.0
 30
0.0
 70
   128
 71
   -15
 72
    16
 73
    85
  0
VERTEX
  8
0
 62
     7
  5
5D5
 10
0.0
 20
0.0
 30
0.0
 70
   128
 71
    -8
 72
     9
 73
    86
  0
VERTEX
  8
0
 62
     7
  5
5D6
 10
0.0
 20
0.0
 30
0.0
 70
   128
 71
    -1
 72
     2
 73
    87
  0
SEQEND
  8
0
 62
     7
  5
5D7
  0
POLYLINE
  8
0
 62
     7
  5
5D8
 66
     1
 10
0.0
 20
0.0
 30
0.0
 70
    64
  0
VERTEX
  8
0
  5
5D9
 10
-48.405994
 20
2.388
 30
4.0
 70
   192
  0
VERTEX
  8
0
  5
5DA
 10
-48.227993
 20
2.362999
 30
4.0
 70
   192
  0
VERTEX
  8
0
  5
5DB
 10
-48.303993
 20
2.921999
 30
4.0
 70
   192
  0
VERTEX
  8
0
  5
5DC
 10
-48.075008
 20
2.337001
 30
4.0
 70
   192
  0
VERTEX
  8
0
  5
5DD
 10
-48.760998
 20
2.413001
 30
4.0
 70
   192
  0
VERTEX
  8
0
  5
5DE
 10
-48.506996
 20
2.922
 30
4.0
 70
   192
  0
VERTEX
  8
0
  5
5DF
 10
-46.778992
 20
2.412993
 30
4.0
 70
   192
  0
VERTEX
  8
0
  5
5E0
 10
-47.769989
 20
2.260998
 30
4.0
 70
   192
  0
VERTEX
  8
0
  5
5E1
 10
-47.618023
 20
2.210008
 30
4.0
 70
   192
  0
VERTEX
  8
0
  5
5E2
 10
-47.490997
 20
2.158998
 30
4.0
 70
   192
  0
VERTEX
  8
0
  5
5E3
 10
-50.005997
 20
2.413001
 30
4.0
 70
   192
  0
VERTEX
  8
0
  5
5E4
 10
-50.591
 20
2.947001
 30
4.0
 70
   192
  0
VERTEX
  8
0
  5
5E5
 10
-47.566998
 20
2.744001
 30
4.0
 70
   192
  0
VERTEX
  8
0
  5
5E6
 10
-46.271
 20
2.007
 30
4.0
 70
   192
  0
VERTEX
  8
0
  5
5E7
 10
-47.237011
 20
2.032004
 30
4.0
 70
   192
  0
VERTEX
  8
0
  5
5E8
 10
-47.110004
 20
1.956003
 30
4.0
 70
   192
  0
VERTEX
  8
0
  5
5E9
 10
-45.609989
 20
1.015971
 30
4.0
 70
   192
  0
VERTEX
  8
0
  5
5EA
 10
-46.905865
 20
1.803901
 30
4.0
 70
   192
  0
VERTEX
  8
0
  5
5EB
 10
-46.805016
 20
1.727014
 30
4.0
 70
   192
  0
VERTEX
  8
0
  5
5EC
 10
-46.702988
 20
1.625986
 30
4.0
 70
   192
  0
VERTEX
  8
0
  5
5ED
 10
-46.524994
 20
1.42199
 30
4.0
 70
   192
  0
VERTEX
  8
0
  5
5EE
 10
-50.006001
 20
-2.744
 30
4.0
 70
   192
  0
VERTEX
  8
0
  5
5EF
 10
-50.591
 20
-3.252
 30
4.0
 70
   192
  0
VERTEX
  8
0
  5
5F0
 10
-48.735996
 20
-2.744
 30
4.0
 70
   192
  0
VERTEX
  8
0
  5
5F1
 10
-47.922993
 20
2.844998
 30
4.0
 70
   192
  0
VERTEX
  8
0
  5
5F2
 10
-47.058571
 20
2.565784
 30
4.0
 70
   192
  0
VERTEX
  8
0
  5
5F3
 10
-46.397999
 20
2.108999
 30
4.0
 70
   192
  0
VERTEX
  8
0
  5
5F4
 10
-45.889999
 20
1.549996
 30
4.0
 70
   192
  0
VERTEX
  8
0
  5
5F5
 10
-45.432995
 20
0.405997
 30
4.0
 70
   192
  0
VERTEX
  8
0
  5
5F6
 10
-46.373024
 20
1.219029
 30
4.0
 70
   192
  0
VERTEX
  8
0
  5
5F7
 10
-45.382
 20
-0.22801
 30
4.0
 70
   192
  0
VERTEX
  8
0
  5
5F8
 10
-46.245991
 20
1.015986
 30
4.0
 70
   192
  0
VERTEX
  8
0
  5
5F9
 10
-46.144001
 20
0.786992
 30
4.0
 70
   192
  0
VERTEX
  8
0
  5
5FA
 10
-45.458
 20
-0.889014
 30
4.0
 70
   192
  0
VERTEX
  8
0
  5
5FB
 10
-46.068005
 20
0.533021
 30
4.0
 70
   192
  0
VERTEX
  8
0
  5
5FC
 10
-45.660995
 20
-1.472987
 30
4.0
 70
   192
  0
VERTEX
  8
0
  5
5FD
 10
-46.016949
 20
0.278536
 30
4.0
 70
   192
  0
VERTEX
  8
0
  5
5FE
 10
-45.966064
 20
-0.227379
 30
4.0
 70
   192
  0
VERTEX
  8
0
  5
5FF
 10
-45.966007
 20
-2.007003
 30
4.0
 70
   192
  0
VERTEX
  8
0
  5
600
 10
-45.992008
 20
-0.533026
 30
4.0
 70
   192
  0
VERTEX
  8
0
  5
601
 10
-46.499996
 20
-2.539994
 30
4.0
 70
   192
  0
VERTEX
  8
0
  5
602
 10
-46.067833
 20
-0.812388
 30
4.0
 70
   192
  0
VERTEX
  8
0
  5
603
 10
-46.144001
 20
-1.092
 30
4.0
 70
   192
  0
VERTEX
  8
0
  5
604
 10
-46.601288
 20
-2.642169
 30
4.0
 70
   192
  0
VERTEX
  8
0
  5
605
 10
-47.999039
 20
-3.201007
 30
4.0
 70
   192
  0
VERTEX
  8
0
  5
606
 10
-48.1511
 20
-3.227016
 30
4.0
 70
   192
  0
VERTEX
  8
0
  5
607
 10
-48.304001
 20
-3.252
 30
4.0
 70
   192
  0
VERTEX
  8
0
  5
608
 10
-48.710003
 20
2.947001
 30
4.0
 70
   192
  0
VERTEX
  8
0
  5
609
 10
-48.101006
 20
2.896001
 30
4.0
 70
   192
  0
VERTEX
  8
0
  5
60A
 10
-47.718994
 20
2.819999
 30
4.0
 70
   192
  0
VERTEX
  8
0
  5
60B
 10
-47.210495
 20
2.641747
 30
4.0
 70
   192
  0
VERTEX
  8
0
  5
60C
 10
-46.906006
 20
2.490001
 30
4.0
 70
   192
  0
VERTEX
  8
0
  5
60D
 10
-46.626972
 20
2.311984
 30
4.0
 70
   192
  0
VERTEX
  8
0
  5
60E
 10
-46.500023
 20
2.21002
 30
4.0
 70
   192
  0
VERTEX
  8
0
  5
60F
 10
-46.068012
 20
1.778017
 30
4.0
 70
   192
  0
VERTEX
  8
0
  5
610
 10
-45.737007
 20
1.295014
 30
4.0
 70
   192
  0
VERTEX
  8
0
  5
611
 10
-45.508999
 20
0.710999
 30
4.0
 70
   192
  0
VERTEX
  8
0
  5
612
 10
-45.407028
 20
0.101306
 30
4.0
 70
   192
  0
VERTEX
  8
0
  5
613
 10
-45.407001
 20
-0.559004
 30
4.0
 70
   192
  0
VERTEX
  8
0
  5
614
 10
-45.534004
 20
-1.193998
 30
4.0
 70
   192
  0
VERTEX
  8
0
  5
615
 10
-45.813995
 20
-1.752988
 30
4.0
 70
   192
  0
VERTEX
  8
0
  5
616
 10
-46.169029
 20
-2.23603
 30
4.0
 70
   192
  0
VERTEX
  8
0
  5
617
 10
-46.372986
 20
-2.438985
 30
4.0
 70
   192
  0
VERTEX
  8
0
  5
618
 10
-46.728298
 20
-2.718179
 30
4.0
 70
   192
  0
VERTEX
  8
0
  5
619
 10
-46.85606
 20
-2.795035
 30
4.0
 70
   192
  0
VERTEX
  8
0
  5
61A
 10
-46.245987
 20
-1.320976
 30
4.0
 70
   192
  0
VERTEX
  8
0
  5
61B
 10
-47.008007
 20
-2.871003
 30
4.0
 70
   192
  0
VERTEX
  8
0
  5
61C
 10
-47.134991
 20
-2.946995
 30
4.0
 70
   192
  0
VERTEX
  8
0
  5
61D
 10
-46.372997
 20
-1.549994
 30
4.0
 70
   192
  0
VERTEX
  8
0
  5
61E
 10
-47.262012
 20
-2.998004
 30
4.0
 70
   192
  0
VERTEX
  8
0
  5
61F
 10
-47.415493
 20
-3.049166
 30
4.0
 70
   192
  0
VERTEX
  8
0
  5
620
 10
-46.525017
 20
-1.753022
 30
4.0
 70
   192
  0
VERTEX
  8
0
  5
621
 10
-47.567013
 20
-3.100002
 30
4.0
 70
   192
  0
VERTEX
  8
0
  5
622
 10
-47.694004
 20
-3.15
 30
4.0
 70
   192
  0
VERTEX
  8
0
  5
623
 10
-46.702988
 20
-1.955994
 30
4.0
 70
   192
  0
VERTEX
  8
0
  5
624
 10
-47.846928
 20
-3.175989
 30
4.0
 70
   192
  0
VERTEX
  8
0
  5
625
 10
-46.906021
 20
-2.109017
 30
4.0
 70
   192
  0
VERTEX
  8
0
  5
626
 10
-47.134979
 20
-2.260989
 30
4.0
 70
   192
  0
VERTEX
  8
0
  5
627
 10
-47.364006
 20
-2.388005
 30
4.0
 70
   192
  0
VERTEX
  8
0
  5
628
 10
-47.59198
 20
-2.489992
 30
4.0
 70
   192
  0
VERTEX
  8
0
  5
629
 10
-47.847004
 20
-2.591003
 30
4.0
 70
   192
  0
VERTEX
  8
0
  5
62A
 10
-48.125988
 20
-2.667999
 30
4.0
 70
   192
  0
VERTEX
  8
0
  5
62B
 10
-48.430992
 20
-2.692999
 30
4.0
 70
   192
  0
VERTEX
  8
0
  5
62C
 10
-45.991913
 20
0.024121
 30
4.0
 70
   192
  0
VERTEX
  8
0
  5
62D
 10
-47.363995
 20
2.082996
 30
4.0
 70
   192
  0
VERTEX
  8
0
  5
62E
 10
-47.923
 20
2.286001
 30
4.0
 70
   192
  0
VERTEX
  8
0
  5
62F
 10
-48.583
 20
2.388
 30
4.0
 70
   192
  0
VERTEX
  8
0
 62
     7
  5
630
 10
0.0
 20
0.0
 30
0.0
 70
   128
 71
     1
 72
    -2
 73
    -3
  0
VERTEX
  8
0
 62
     7
  5
631
 10
0.0
 20
0.0
 30
0.0
 70
   128
 71
     2
 72
    -4
 73
    -3
  0
VERTEX
  8
0
 62
     7
  5
632
 10
0.0
 20
0.0
 30
0.0
 70
   128
 71
    -3
 72
    -5
 73
    -1
  0
VERTEX
  8
0
 62
     7
  5
633
 10
0.0
 20
0.0
 30
0.0
 70
   128
 71
     3
 72
    -6
 73
    -5
  0
VERTEX
  8
0
 62
     7
  5
634
 10
0.0
 20
0.0
 30
0.0
 70
   128
 71
    -4
 72
    -7
 73
    -3
  0
VERTEX
  8
0
 62
     7
  5
635
 10
0.0
 20
0.0
 30
0.0
 70
   128
 71
    -4
 72
    -8
 73
    -7
  0
VERTEX
  8
0
 62
     7
  5
636
 10
0.0
 20
0.0
 30
0.0
 70
   128
 71
     8
 72
    -9
 73
    -7
  0
VERTEX
  8
0
 62
     7
  5
637
 10
0.0
 20
0.0
 30
0.0
 70
   128
 71
     9
 72
   -10
 73
    -7
  0
VERTEX
  8
0
 62
     7
  5
638
 10
0.0
 20
0.0
 30
0.0
 70
   128
 71
    -6
 72
    11
 73
    -5
  0
VERTEX
  8
0
 62
     7
  5
639
 10
0.0
 20
0.0
 30
0.0
 70
   128
 71
    -6
 72
   -12
 73
   -11
  0
VERTEX
  8
0
 62
     7
  5
63A
 10
0.0
 20
0.0
 30
0.0
 70
   128
 71
    -7
 72
   -13
 73
    -3
  0
VERTEX
  8
0
 62
     7
  5
63B
 10
0.0
 20
0.0
 30
0.0
 70
   128
 71
   -10
 72
   -14
 73
    -7
  0
VERTEX
  8
0
 62
     7
  5
63C
 10
0.0
 20
0.0
 30
0.0
 70
   128
 71
   -10
 72
   -15
 73
   -14
  0
VERTEX
  8
0
 62
     7
  5
63D
 10
0.0
 20
0.0
 30
0.0
 70
   128
 71
    15
 72
   -16
 73
   -14
  0
VERTEX
  8
0
 62
     7
  5
63E
 10
0.0
 20
0.0
 30
0.0
 70
   128
 71
   -16
 72
   -17
 73
   -14
  0
VERTEX
  8
0
 62
     7
  5
63F
 10
0.0
 20
0.0
 30
0.0
 70
   128
 71
    16
 72
   -18
 73
   -17
  0
VERTEX
  8
0
 62
     7
  5
640
 10
0.0
 20
0.0
 30
0.0
 70
   128
 71
    18
 72
   -19
 73
   -17
  0
VERTEX
  8
0
 62
     7
  5
641
 10
0.0
 20
0.0
 30
0.0
 70
   128
 71
    19
 72
   -20
 73
   -17
  0
VERTEX
  8
0
 62
     7
  5
642
 10
0.0
 20
0.0
 30
0.0
 70
   128
 71
    20
 72
   -21
 73
   -17
  0
VERTEX
  8
0
 62
     7
  5
643
 10
0.0
 20
0.0
 30
0.0
 70
   128
 71
   -12
 72
    22
 73
   -11
  0
VERTEX
  8
0
 62
     7
  5
644
 10
0.0
 20
0.0
 30
0.0
 70
   128
 71
    12
 72
   -23
 73
   -22
  0
VERTEX
  8
0
 62
     7
  5
645
 10
0.0
 20
0.0
 30
0.0
 70
   128
 71
   -23
 72
    24
 73
   -22
  0
VERTEX
  8
0
 62
     7
  5
646
 10
0.0
 20
0.0
 30
0.0
 70
   128
 71
   -13
 72
   -25
 73
    -3
  0
VERTEX
  8
0
 62
     7
  5
647
 10
0.0
 20
0.0
 30
0.0
 70
   128
 71
    -7
 72
   -26
 73
   -13
  0
VERTEX
  8
0
 62
     7
  5
648
 10
0.0
 20
0.0
 30
0.0
 70
   128
 71
    14
 72
   -27
 73
    -7
  0
VERTEX
  8
0
 62
     7
  5
649
 10
0.0
 20
0.0
 30
0.0
 70
   128
 71
   -17
 72
   -28
 73
   -14
  0
VERTEX
  8
0
 62
     7
  5
64A
 10
0.0
 20
0.0
 30
0.0
 70
   128
 71
   -21
 72
   -29
 73
   -17
  0
VERTEX
  8
0
 62
     7
  5
64B
 10
0.0
 20
0.0
 30
0.0
 70
   128
 71
    21
 72
   -30
 73
   -29
  0
VERTEX
  8
0
 62
     7
  5
64C
 10
0.0
 20
0.0
 30
0.0
 70
   128
 71
   -30
 72
   -31
 73
   -29
  0
VERTEX
  8
0
 62
     7
  5
64D
 10
0.0
 20
0.0
 30
0.0
 70
   128
 71
    30
 72
   -32
 73
   -31
  0
VERTEX
  8
0
 62
     7
  5
64E
 10
0.0
 20
0.0
 30
0.0
 70
   128
 71
    32
 72
   -33
 73
   -31
  0
VERTEX
  8
0
 62
     7
  5
64F
 10
0.0
 20
0.0
 30
0.0
 70
   128
 71
   -33
 72
   -34
 73
   -31
  0
VERTEX
  8
0
 62
     7
  5
650
 10
0.0
 20
0.0
 30
0.0
 70
   128
 71
    33
 72
   -35
 73
   -34
  0
VERTEX
  8
0
 62
     7
  5
651
 10
0.0
 20
0.0
 30
0.0
 70
   128
 71
   -35
 72
   -36
 73
   -34
  0
VERTEX
  8
0
 62
     7
  5
652
 10
0.0
 20
0.0
 30
0.0
 70
   128
 71
    35
 72
   -37
 73
   -36
  0
VERTEX
  8
0
 62
     7
  5
653
 10
0.0
 20
0.0
 30
0.0
 70
   128
 71
   -37
 72
   -38
 73
   -36
  0
VERTEX
  8
0
 62
     7
  5
654
 10
0.0
 20
0.0
 30
0.0
 70
   128
 71
   -38
 72
   -39
 73
   -36
  0
VERTEX
  8
0
 62
     7
  5
655
 10
0.0
 20
0.0
 30
0.0
 70
   128
 71
    38
 72
   -40
 73
   -39
  0
VERTEX
  8
0
 62
     7
  5
656
 10
0.0
 20
0.0
 30
0.0
 70
   128
 71
   -40
 72
   -41
 73
   -39
  0
VERTEX
  8
0
 62
     7
  5
657
 10
0.0
 20
0.0
 30
0.0
 70
   128
 71
    40
 72
   -42
 73
   -41
  0
VERTEX
  8
0
 62
     7
  5
658
 10
0.0
 20
0.0
 30
0.0
 70
   128
 71
    42
 72
   -43
 73
   -41
  0
VERTEX
  8
0
 62
     7
  5
659
 10
0.0
 20
0.0
 30
0.0
 70
   128
 71
   -43
 72
    44
 73
   -41
  0
VERTEX
  8
0
 62
     7
  5
65A
 10
0.0
 20
0.0
 30
0.0
 70
   128
 71
   -23
 72
   -45
 73
   -24
  0
VERTEX
  8
0
 62
     7
  5
65B
 10
0.0
 20
0.0
 30
0.0
 70
   128
 71
   -23
 72
    46
 73
   -45
  0
VERTEX
  8
0
 62
     7
  5
65C
 10
0.0
 20
0.0
 30
0.0
 70
   128
 71
    23
 72
    47
 73
   -46
  0
VERTEX
  8
0
 62
     7
  5
65D
 10
0.0
 20
0.0
 30
0.0
 70
   128
 71
     6
 72
    48
 73
   -12
  0
VERTEX
  8
0
 62
     7
  5
65E
 10
0.0
 20
0.0
 30
0.0
 70
   128
 71
    25
 72
    49
 73
    -3
  0
VERTEX
  8
0
 62
     7
  5
65F
 10
0.0
 20
0.0
 30
0.0
 70
   128
 71
    13
 72
    50
 73
   -25
  0
VERTEX
  8
0
 62
     7
  5
660
 10
0.0
 20
0.0
 30
0.0
 70
   128
 71
    26
 72
    51
 73
   -13
  0
VERTEX
  8
0
 62
     7
  5
661
 10
0.0
 20
0.0
 30
0.0
 70
   128
 71
     7
 72
    52
 73
   -26
  0
VERTEX
  8
0
 62
     7
  5
662
 10
0.0
 20
0.0
 30
0.0
 70
   128
 71
   -27
 72
    53
 73
    -7
  0
VERTEX
  8
0
 62
     7
  5
663
 10
0.0
 20
0.0
 30
0.0
 70
   128
 71
    27
 72
    54
 73
   -53
  0
VERTEX
  8
0
 62
     7
  5
664
 10
0.0
 20
0.0
 30
0.0
 70
   128
 71
    28
 72
    55
 73
   -14
  0
VERTEX
  8
0
 62
     7
  5
665
 10
0.0
 20
0.0
 30
0.0
 70
   128
 71
    17
 72
    56
 73
   -28
  0
VERTEX
  8
0
 62
     7
  5
666
 10
0.0
 20
0.0
 30
0.0
 70
   128
 71
    29
 72
    57
 73
   -17
  0
VERTEX
  8
0
 62
     7
  5
667
 10
0.0
 20
0.0
 30
0.0
 70
   128
 71
    31
 72
    58
 73
   -29
  0
VERTEX
  8
0
 62
     7
  5
668
 10
0.0
 20
0.0
 30
0.0
 70
   128
 71
    34
 72
    59
 73
   -31
  0
VERTEX
  8
0
 62
     7
  5
669
 10
0.0
 20
0.0
 30
0.0
 70
   128
 71
    36
 72
    60
 73
   -34
  0
VERTEX
  8
0
 62
     7
  5
66A
 10
0.0
 20
0.0
 30
0.0
 70
   128
 71
    39
 72
    61
 73
   -36
  0
VERTEX
  8
0
 62
     7
  5
66B
 10
0.0
 20
0.0
 30
0.0
 70
   128
 71
   -41
 72
    62
 73
   -39
  0
VERTEX
  8
0
 62
     7
  5
66C
 10
0.0
 20
0.0
 30
0.0
 70
   128
 71
    41
 72
    63
 73
   -62
  0
VERTEX
  8
0
 62
     7
  5
66D
 10
0.0
 20
0.0
 30
0.0
 70
   128
 71
   -43
 72
    64
 73
   -44
  0
VERTEX
  8
0
 62
     7
  5
66E
 10
0.0
 20
0.0
 30
0.0
 70
   128
 71
   -43
 72
    65
 73
   -64
  0
VERTEX
  8
0
 62
     7
  5
66F
 10
0.0
 20
0.0
 30
0.0
 70
   128
 71
    43
 72
   -66
 73
   -65
  0
VERTEX
  8
0
 62
     7
  5
670
 10
0.0
 20
0.0
 30
0.0
 70
   128
 71
   -66
 72
    67
 73
   -65
  0
VERTEX
  8
0
 62
     7
  5
671
 10
0.0
 20
0.0
 30
0.0
 70
   128
 71
   -66
 72
    68
 73
   -67
  0
VERTEX
  8
0
 62
     7
  5
672
 10
0.0
 20
0.0
 30
0.0
 70
   128
 71
    66
 72
   -69
 73
   -68
  0
VERTEX
  8
0
 62
     7
  5
673
 10
0.0
 20
0.0
 30
0.0
 70
   128
 71
   -69
 72
    70
 73
   -68
  0
VERTEX
  8
0
 62
     7
  5
674
 10
0.0
 20
0.0
 30
0.0
 70
   128
 71
   -69
 72
    71
 73
   -70
  0
VERTEX
  8
0
 62
     7
  5
675
 10
0.0
 20
0.0
 30
0.0
 70
   128
 71
    69
 72
   -72
 73
   -71
  0
VERTEX
  8
0
 62
     7
  5
676
 10
0.0
 20
0.0
 30
0.0
 70
   128
 71
   -72
 72
    73
 73
   -71
  0
VERTEX
  8
0
 62
     7
  5
677
 10
0.0
 20
0.0
 30
0.0
 70
   128
 71
   -72
 72
    74
 73
   -73
  0
VERTEX
  8
0
 62
     7
  5
678
 10
0.0
 20
0.0
 30
0.0
 70
   128
 71
    72
 72
   -75
 73
   -74
  0
VERTEX
  8
0
 62
     7
  5
679
 10
0.0
 20
0.0
 30
0.0
 70
   128
 71
   -75
 72
    76
 73
   -74
  0
VERTEX
  8
0
 62
     7
  5
67A
 10
0.0
 20
0.0
 30
0.0
 70
   128
 71
   -75
 72
    45
 73
   -76
  0
VERTEX
  8
0
 62
     7
  5
67B
 10
0.0
 20
0.0
 30
0.0
 70
   128
 71
    75
 72
   -77
 73
   -45
  0
VERTEX
  8
0
 62
     7
  5
67C
 10
0.0
 20
0.0
 30
0.0
 70
   128
 71
    77
 72
   -78
 73
   -45
  0
VERTEX
  8
0
 62
     7
  5
67D
 10
0.0
 20
0.0
 30
0.0
 70
   128
 71
    78
 72
   -79
 73
   -45
  0
VERTEX
  8
0
 62
     7
  5
67E
 10
0.0
 20
0.0
 30
0.0
 70
   128
 71
    79
 72
   -80
 73
   -45
  0
VERTEX
  8
0
 62
     7
  5
67F
 10
0.0
 20
0.0
 30
0.0
 70
   128
 71
    80
 72
   -81
 73
   -45
  0
VERTEX
  8
0
 62
     7
  5
680
 10
0.0
 20
0.0
 30
0.0
 70
   128
 71
    81
 72
   -82
 73
   -45
  0
VERTEX
  8
0
 62
     7
  5
681
 10
0.0
 20
0.0
 30
0.0
 70
   128
 71
    82
 72
   -83
 73
   -45
  0
VERTEX
  8
0
 62
     7
  5
682
 10
0.0
 20
0.0
 30
0.0
 70
   128
 71
    37
 72
    84
 73
   -38
  0
VERTEX
  8
0
 62
     7
  5
683
 10
0.0
 20
0.0
 30
0.0
 70
   128
 71
    10
 72
    85
 73
   -15
  0
VERTEX
  8
0
 62
     7
  5
684
 10
0.0
 20
0.0
 30
0.0
 70
   128
 71
     4
 72
    86
 73
    -8
  0
VERTEX
  8
0
 62
     7
  5
685
 10
0.0
 20
0.0
 30
0.0
 70
   128
 71
     5
 72
    87
 73
    -1
  0
VERTEX
  8
0
 62
     7
  5
686
 10
0.0
 20
0.0
 30
0.0
 70
   128
 71
   -45
 72
    83
 73
   -24
  0
SEQEND
  8
0
 62
     7
  5
687
  0
POLYLINE
  8
0
 62
     7
  5
688
 66
     1
 10
0.0
 20
0.0
 30
0.0
 70
    64
  0
VERTEX
  8
0
  5
689
 10
-50.591
 20
-3.252
 30
4.0
 70
   192
  0
VERTEX
  8
0
  5
68A
 10
-50.591
 20
-3.252
 30
0.0
 70
   192
  0
VERTEX
  8
0
  5
68B
 10
-48.304001
 20
-3.252
 30
0.0
 70
   192
  0
VERTEX
  8
0
  5
68C
 10
-48.304001
 20
-3.252
 30
4.0
 70
   192
  0
VERTEX
  8
0
 62
     7
  5
68D
 10
0.0
 20
0.0
 30
0.0
 70
   128
 71
     1
 72
     2
 73
    -3
  0
VERTEX
  8
0
 62
     7
  5
68E
 10
0.0
 20
0.0
 30
0.0
 70
   128
 71
     3
 72
     4
 73
    -1
  0
SEQEND
  8
0
 62
     7
  5
68F
  0
POLYLINE
  8
0
 62
     7
  5
690
 66
     1
 10
0.0
 20
0.0
 30
0.0
 70
    64
  0
VERTEX
  8
0
  5
691
 10
-48.150948
 20
-3.226992
 30
4.0
 70
   192
  0
VERTEX
  8
0
  5
692
 10
-48.304001
 20
-3.252001
 30
4.0
 70
   192
  0
VERTEX
  8
0
  5
693
 10
-48.304001
 20
-3.252
 30
0.0
 70
   192
  0
VERTEX
  8
0
  5
694
 10
-48.150948
 20
-3.226992
 30
0.0
 70
   192
  0
VERTEX
  8
0
 62
     7
  5
695
 10
0.0
 20
0.0
 30
0.0
 70
   128
 71
     1
 72
     2
 73
    -3
  0
VERTEX
  8
0
 62
     7
  5
696
 10
0.0
 20
0.0
 30
0.0
 70
   128
 71
     3
 72
     4
 73
    -1
  0
SEQEND
  8
0
 62
     7
  5
697
  0
POLYLINE
  8
0
 62
     7
  5
698
 66
     1
 10
0.0
 20
0.0
 30
0.0
 70
    64
  0
VERTEX
  8
0
  5
699
 10
-47.693996
 20
-3.15
 30
4.0
 70
   192
  0
VERTEX
  8
0
  5
69A
 10
-47.847023
 20
-3.176004
 30
4.0
 70
   192
  0
VERTEX
  8
0
  5
69B
 10
-47.693996
 20
-3.15
 30
0.0
 70
   192
  0
VERTEX
  8
0
  5
69C
 10
-47.847023
 20
-3.176004
 30
0.0
 70
   192
  0
VERTEX
  8
0
 62
     7
  5
69D
 10
0.0
 20
0.0
 30
0.0
 70
   128
 71
     1
 72
    -2
 73
     3
  0
VERTEX
  8
0
 62
     7
  5
69E
 10
0.0
 20
0.0
 30
0.0
 70
   128
 71
     2
 72
     4
 73
    -3
  0
SEQEND
  8
0
 62
     7
  5
69F
  0
POLYLINE
  8
0
 62
     7
  5
6A0
 66
     1
 10
0.0
 20
0.0
 30
0.0
 70
    64
  0
VERTEX
  8
0
  5
6A1
 10
-47.135006
 20
-2.947003
 30
4.0
 70
   192
  0
VERTEX
  8
0
  5
6A2
 10
-47.262005
 20
-2.998
 30
0.0
 70
   192
  0
VERTEX
  8
0
  5
6A3
 10
-47.134998
 20
-2.947
 30
0.0
 70
   192
  0
VERTEX
  8
0
  5
6A4
 10
-47.26199
 20
-2.997996
 30
4.0
 70
   192
  0
VERTEX
  8
0
 62
     7
  5
6A5
 10
0.0
 20
0.0
 30
0.0
 70
   128
 71
    -1
 72
     2
 73
     3
  0
VERTEX
  8
0
 62
     7
  5
6A6
 10
0.0
 20
0.0
 30
0.0
 70
   128
 71
     1
 72
     4
 73
    -2
  0
SEQEND
  8
0
 62
     7
  5
6A7
  0
POLYLINE
  8
0
 62
     7
  5
6A8
 66
     1
 10
0.0
 20
0.0
 30
0.0
 70
    64
  0
VERTEX
  8
0
  5
6A9
 10
-46.372986
 20
-2.438985
 30
4.0
 70
   192
  0
VERTEX
  8
0
  5
6AA
 10
-46.372986
 20
-2.438985
 30
0.0
 70
   192
  0
VERTEX
  8
0
  5
6AB
 10
-46.16901
 20
-2.236013
 30
0.0
 70
   192
  0
VERTEX
  8
0
  5
6AC
 10
-46.16901
 20
-2.236014
 30
4.0
 70
   192
  0
VERTEX
  8
0
 62
     7
  5
6AD
 10
0.0
 20
0.0
 30
0.0
 70
   128
 71
     1
 72
     2
 73
    -3
  0
VERTEX
  8
0
 62
     7
  5
6AE
 10
0.0
 20
0.0
 30
0.0
 70
   128
 71
     3
 72
     4
 73
    -1
  0
SEQEND
  8
0
 62
     7
  5
6AF
  0
POLYLINE
  8
0
 62
     7
  5
6B0
 66
     1
 10
0.0
 20
0.0
 30
0.0
 70
    64
  0
VERTEX
  8
0
  5
6B1
 10
-45.966007
 20
-2.007004
 30
4.0
 70
   192
  0
VERTEX
  8
0
  5
6B2
 10
-46.16901
 20
-2.236014
 30
4.0
 70
   192
  0
VERTEX
  8
0
  5
6B3
 10
-46.16901
 20
-2.236013
 30
0.0
 70
   192
  0
VERTEX
  8
0
  5
6B4
 10
-45.965996
 20
-2.006995
 30
0.0
 70
   192
  0
VERTEX
  8
0
 62
     7
  5
6B5
 10
0.0
 20
0.0
 30
0.0
 70
   128
 71
     1
 72
     2
 73
    -3
  0
VERTEX
  8
0
 62
     7
  5
6B6
 10
0.0
 20
0.0
 30
0.0
 70
   128
 71
     3
 72
     4
 73
    -1
  0
SEQEND
  8
0
 62
     7
  5
6B7
  0
POLYLINE
  8
0
 62
     7
  5
6B8
 66
     1
 10
0.0
 20
0.0
 30
0.0
 70
    64
  0
VERTEX
  8
0
  5
6B9
 10
-45.814003
 20
-1.753008
 30
4.0
 70
   192
  0
VERTEX
  8
0
  5
6BA
 10
-45.965996
 20
-2.006998
 30
4.0
 70
   192
  0
VERTEX
  8
0
  5
6BB
 10
-45.814003
 20
-1.753008
 30
0.0
 70
   192
  0
VERTEX
  8
0
  5
6BC
 10
-45.965996
 20
-2.006998
 30
0.0
 70
   192
  0
VERTEX
  8
0
 62
     7
  5
6BD
 10
0.0
 20
0.0
 30
0.0
 70
   128
 71
     1
 72
    -2
 73
     3
  0
VERTEX
  8
0
 62
     7
  5
6BE
 10
0.0
 20
0.0
 30
0.0
 70
   128
 71
     2
 72
     4
 73
    -3
  0
SEQEND
  8
0
 62
     7
  5
6BF
  0
POLYLINE
  8
0
 62
     7
  5
6C0
 66
     1
 10
0.0
 20
0.0
 30
0.0
 70
    64
  0
VERTEX
  8
0
  5
6C1
 10
-45.661003
 20
-1.473001
 30
4.0
 70
   192
  0
VERTEX
  8
0
  5
6C2
 10
-45.813992
 20
-1.752977
 30
0.0
 70
   192
  0
VERTEX
  8
0
  5
6C3
 10
-45.661003
 20
-1.473
 30
0.0
 70
   192
  0
VERTEX
  8
0
  5
6C4
 10
-45.813992
 20
-1.752977
 30
4.0
 70
   192
  0
VERTEX
  8
0
 62
     7
  5
6C5
 10
0.0
 20
0.0
 30
0.0
 70
   128
 71
    -1
 72
     2
 73
     3
  0
VERTEX
  8
0
 62
     7
  5
6C6
 10
0.0
 20
0.0
 30
0.0
 70
   128
 71
     1
 72
     4
 73
    -2
  0
SEQEND
  8
0
 62
     7
  5
6C7
  0
POLYLINE
  8
0
 62
     7
  5
6C8
 66
     1
 10
0.0
 20
0.0
 30
0.0
 70
    64
  0
VERTEX
  8
0
  5
6C9
 10
-45.660995
 20
-1.472986
 30
4.0
 70
   192
  0
VERTEX
  8
0
  5
6CA
 10
-45.660995
 20
-1.472986
 30
0.0
 70
   192
  0
VERTEX
  8
0
  5
6CB
 10
-45.534004
 20
-1.194
 30
0.0
 70
   192
  0
VERTEX
  8
0
  5
6CC
 10
-45.534004
 20
-1.194
 30
4.0
 70
   192
  0
VERTEX
  8
0
 62
     7
  5
6CD
 10
0.0
 20
0.0
 30
0.0
 70
   128
 71
     1
 72
     2
 73
    -3
  0
VERTEX
  8
0
 62
     7
  5
6CE
 10
0.0
 20
0.0
 30
0.0
 70
   128
 71
     3
 72
     4
 73
    -1
  0
SEQEND
  8
0
 62
     7
  5
6CF
  0
POLYLINE
  8
0
 62
     7
  5
6D0
 66
     1
 10
0.0
 20
0.0
 30
0.0
 70
    64
  0
VERTEX
  8
0
  5
6D1
 10
-45.458
 20
-0.889001
 30
4.0
 70
   192
  0
VERTEX
  8
0
  5
6D2
 10
-45.534004
 20
-1.193998
 30
4.0
 70
   192
  0
VERTEX
  8
0
  5
6D3
 10
-45.534004
 20
-1.193998
 30
0.0
 70
   192
  0
VERTEX
  8
0
  5
6D4
 10
-45.458
 20
-0.889001
 30
0.0
 70
   192
  0
VERTEX
  8
0
 62
     7
  5
6D5
 10
0.0
 20
0.0
 30
0.0
 70
   128
 71
     1
 72
     2
 73
    -3
  0
VERTEX
  8
0
 62
     7
  5
6D6
 10
0.0
 20
0.0
 30
0.0
 70
   128
 71
     3
 72
     4
 73
    -1
  0
SEQEND
  8
0
 62
     7
  5
6D7
  0
POLYLINE
  8
0
 62
     7
  5
6D8
 66
     1
 10
0.0
 20
0.0
 30
0.0
 70
    64
  0
VERTEX
  8
0
  5
6D9
 10
-45.406998
 20
-0.558987
 30
4.0
 70
   192
  0
VERTEX
  8
0
  5
6DA
 10
-45.458
 20
-0.889012
 30
4.0
 70
   192
  0
VERTEX
  8
0
  5
6DB
 10
-45.407001
 20
-0.558987
 30
0.0
 70
   192
  0
VERTEX
  8
0
  5
6DC
 10
-45.458
 20
-0.889012
 30
0.0
 70
   192
  0
VERTEX
  8
0
 62
     7
  5
6DD
 10
0.0
 20
0.0
 30
0.0
 70
   128
 71
     1
 72
    -2
 73
     3
  0
VERTEX
  8
0
 62
     7
  5
6DE
 10
0.0
 20
0.0
 30
0.0
 70
   128
 71
     2
 72
     4
 73
    -3
  0
SEQEND
  8
0
 62
     7
  5
6DF
  0
POLYLINE
  8
0
 62
     7
  5
6E0
 66
     1
 10
0.0
 20
0.0
 30
0.0
 70
    64
  0
VERTEX
  8
0
  5
6E1
 10
-45.382
 20
-0.228004
 30
4.0
 70
   192
  0
VERTEX
  8
0
  5
6E2
 10
-45.407001
 20
-0.559017
 30
0.0
 70
   192
  0
VERTEX
  8
0
  5
6E3
 10
-45.382
 20
-0.228004
 30
0.0
 70
   192
  0
VERTEX
  8
0
  5
6E4
 10
-45.407001
 20
-0.559017
 30
4.0
 70
   192
  0
VERTEX
  8
0
 62
     7
  5
6E5
 10
0.0
 20
0.0
 30
0.0
 70
   128
 71
    -1
 72
     2
 73
     3
  0
VERTEX
  8
0
 62
     7
  5
6E6
 10
0.0
 20
0.0
 30
0.0
 70
   128
 71
     1
 72
     4
 73
    -2
  0
SEQEND
  8
0
 62
     7
  5
6E7
  0
POLYLINE
  8
0
 62
     7
  5
6E8
 66
     1
 10
0.0
 20
0.0
 30
0.0
 70
    64
  0
VERTEX
  8
0
  5
6E9
 10
-45.382
 20
-0.228005
 30
4.0
 70
   192
  0
VERTEX
  8
0
  5
6EA
 10
-45.382
 20
-0.228005
 30
0.0
 70
   192
  0
VERTEX
  8
0
  5
6EB
 10
-45.407021
 20
0.10121
 30
0.0
 70
   192
  0
VERTEX
  8
0
  5
6EC
 10
-45.407021
 20
0.10121
 30
4.0
 70
   192
  0
VERTEX
  8
0
 62
     7
  5
6ED
 10
0.0
 20
0.0
 30
0.0
 70
   128
 71
     1
 72
     2
 73
    -3
  0
VERTEX
  8
0
 62
     7
  5
6EE
 10
0.0
 20
0.0
 30
0.0
 70
   128
 71
     3
 72
     4
 73
    -1
  0
SEQEND
  8
0
 62
     7
  5
6EF
  0
POLYLINE
  8
0
 62
     7
  5
6F0
 66
     1
 10
0.0
 20
0.0
 30
0.0
 70
    64
  0
VERTEX
  8
0
  5
6F1
 10
-45.432999
 20
0.405998
 30
4.0
 70
   192
  0
VERTEX
  8
0
  5
6F2
 10
-45.407009
 20
0.101095
 30
4.0
 70
   192
  0
VERTEX
  8
0
  5
6F3
 10
-45.407009
 20
0.101095
 30
0.0
 70
   192
  0
VERTEX
  8
0
  5
6F4
 10
-45.432999
 20
0.405984
 30
0.0
 70
   192
  0
VERTEX
  8
0
 62
     7
  5
6F5
 10
0.0
 20
0.0
 30
0.0
 70
   128
 71
     1
 72
     2
 73
    -3
  0
VERTEX
  8
0
 62
     7
  5
6F6
 10
0.0
 20
0.0
 30
0.0
 70
   128
 71
     3
 72
     4
 73
    -1
  0
SEQEND
  8
0
 62
     7
  5
6F7
  0
POLYLINE
  8
0
 62
     7
  5
6F8
 66
     1
 10
0.0
 20
0.0
 30
0.0
 70
    64
  0
VERTEX
  8
0
  5
6F9
 10
-45.508999
 20
0.711003
 30
4.0
 70
   192
  0
VERTEX
  8
0
  5
6FA
 10
-45.432999
 20
0.405999
 30
4.0
 70
   192
  0
VERTEX
  8
0
  5
6FB
 10
-45.508999
 20
0.711003
 30
0.0
 70
   192
  0
VERTEX
  8
0
  5
6FC
 10
-45.432999
 20
0.405999
 30
0.0
 70
   192
  0
VERTEX
  8
0
 62
     7
  5
6FD
 10
0.0
 20
0.0
 30
0.0
 70
   128
 71
     1
 72
    -2
 73
     3
  0
VERTEX
  8
0
 62
     7
  5
6FE
 10
0.0
 20
0.0
 30
0.0
 70
   128
 71
     2
 72
     4
 73
    -3
  0
SEQEND
  8
0
 62
     7
  5
6FF
  0
POLYLINE
  8
0
 62
     7
  5
700
 66
     1
 10
0.0
 20
0.0
 30
0.0
 70
    64
  0
VERTEX
  8
0
  5
701
 10
-45.609993
 20
1.015988
 30
4.0
 70
   192
  0
VERTEX
  8
0
  5
702
 10
-45.508995
 20
0.710997
 30
0.0
 70
   192
  0
VERTEX
  8
0
  5
703
 10
-45.609993
 20
1.015988
 30
0.0
 70
   192
  0
VERTEX
  8
0
  5
704
 10
-45.508995
 20
0.710997
 30
4.0
 70
   192
  0
VERTEX
  8
0
 62
     7
  5
705
 10
0.0
 20
0.0
 30
0.0
 70
   128
 71
    -1
 72
     2
 73
     3
  0
VERTEX
  8
0
 62
     7
  5
706
 10
0.0
 20
0.0
 30
0.0
 70
   128
 71
     1
 72
     4
 73
    -2
  0
SEQEND
  8
0
 62
     7
  5
707
  0
POLYLINE
  8
0
 62
     7
  5
708
 66
     1
 10
0.0
 20
0.0
 30
0.0
 70
    64
  0
VERTEX
  8
0
  5
709
 10
-45.609993
 20
1.015983
 30
4.0
 70
   192
  0
VERTEX
  8
0
  5
70A
 10
-45.609993
 20
1.015983
 30
0.0
 70
   192
  0
VERTEX
  8
0
  5
70B
 10
-45.737007
 20
1.295004
 30
0.0
 70
   192
  0
VERTEX
  8
0
  5
70C
 10
-45.737003
 20
1.295005
 30
4.0
 70
   192
  0
VERTEX
  8
0
 62
     7
  5
70D
 10
0.0
 20
0.0
 30
0.0
 70
   128
 71
     1
 72
     2
 73
    -3
  0
VERTEX
  8
0
 62
     7
  5
70E
 10
0.0
 20
0.0
 30
0.0
 70
   128
 71
     3
 72
     4
 73
    -1
  0
SEQEND
  8
0
 62
     7
  5
70F
  0
POLYLINE
  8
0
 62
     7
  5
710
 66
     1
 10
0.0
 20
0.0
 30
0.0
 70
    64
  0
VERTEX
  8
0
  5
711
 10
-45.889996
 20
1.549994
 30
4.0
 70
   192
  0
VERTEX
  8
0
  5
712
 10
-45.737007
 20
1.29501
 30
4.0
 70
   192
  0
VERTEX
  8
0
  5
713
 10
-45.737007
 20
1.29501
 30
0.0
 70
   192
  0
VERTEX
  8
0
  5
714
 10
-45.889996
 20
1.549993
 30
0.0
 70
   192
  0
VERTEX
  8
0
 62
     7
  5
715
 10
0.0
 20
0.0
 30
0.0
 70
   128
 71
     1
 72
     2
 73
    -3
  0
VERTEX
  8
0
 62
     7
  5
716
 10
0.0
 20
0.0
 30
0.0
 70
   128
 71
     3
 72
     4
 73
    -1
  0
SEQEND
  8
0
 62
     7
  5
717
  0
POLYLINE
  8
0
 62
     7
  5
718
 66
     1
 10
0.0
 20
0.0
 30
0.0
 70
    64
  0
VERTEX
  8
0
  5
719
 10
-46.068005
 20
1.778003
 30
4.0
 70
   192
  0
VERTEX
  8
0
  5
71A
 10
-45.889999
 20
1.55
 30
4.0
 70
   192
  0
VERTEX
  8
0
  5
71B
 10
-46.068005
 20
1.778003
 30
0.0
 70
   192
  0
VERTEX
  8
0
  5
71C
 10
-45.889999
 20
1.55
 30
0.0
 70
   192
  0
VERTEX
  8
0
 62
     7
  5
71D
 10
0.0
 20
0.0
 30
0.0
 70
   128
 71
     1
 72
    -2
 73
     3
  0
VERTEX
  8
0
 62
     7
  5
71E
 10
0.0
 20
0.0
 30
0.0
 70
   128
 71
     2
 72
     4
 73
    -3
  0
SEQEND
  8
0
 62
     7
  5
71F
  0
POLYLINE
  8
0
 62
     7
  5
720
 66
     1
 10
0.0
 20
0.0
 30
0.0
 70
    64
  0
VERTEX
  8
0
  5
721
 10
-46.271
 20
2.007
 30
4.0
 70
   192
  0
VERTEX
  8
0
  5
722
 10
-46.068012
 20
1.778013
 30
0.0
 70
   192
  0
VERTEX
  8
0
  5
723
 10
-46.271
 20
2.007
 30
0.0
 70
   192
  0
VERTEX
  8
0
  5
724
 10
-46.068012
 20
1.778013
 30
4.0
 70
   192
  0
VERTEX
  8
0
 62
     7
  5
725
 10
0.0
 20
0.0
 30
0.0
 70
   128
 71
    -1
 72
     2
 73
     3
  0
VERTEX
  8
0
 62
     7
  5
726
 10
0.0
 20
0.0
 30
0.0
 70
   128
 71
     1
 72
     4
 73
    -2
  0
SEQEND
  8
0
 62
     7
  5
727
  0
POLYLINE
  8
0
 62
     7
  5
728
 66
     1
 10
0.0
 20
0.0
 30
0.0
 70
    64
  0
VERTEX
  8
0
  5
729
 10
-46.500023
 20
2.210019
 30
4.0
 70
   192
  0
VERTEX
  8
0
  5
72A
 10
-46.500023
 20
2.210019
 30
0.0
 70
   192
  0
VERTEX
  8
0
  5
72B
 10
-46.626991
 20
2.311993
 30
0.0
 70
   192
  0
VERTEX
  8
0
  5
72C
 10
-46.626991
 20
2.311993
 30
4.0
 70
   192
  0
VERTEX
  8
0
 62
     7
  5
72D
 10
0.0
 20
0.0
 30
0.0
 70
   128
 71
     1
 72
     2
 73
    -3
  0
VERTEX
  8
0
 62
     7
  5
72E
 10
0.0
 20
0.0
 30
0.0
 70
   128
 71
     3
 72
     4
 73
    -1
  0
SEQEND
  8
0
 62
     7
  5
72F
  0
POLYLINE
  8
0
 62
     7
  5
730
 66
     1
 10
0.0
 20
0.0
 30
0.0
 70
    64
  0
VERTEX
  8
0
  5
731
 10
-46.778992
 20
2.412994
 30
4.0
 70
   192
  0
VERTEX
  8
0
  5
732
 10
-46.626987
 20
2.311991
 30
4.0
 70
   192
  0
VERTEX
  8
0
  5
733
 10
-46.626987
 20
2.311991
 30
0.0
 70
   192
  0
VERTEX
  8
0
  5
734
 10
-46.778992
 20
2.412994
 30
0.0
 70
   192
  0
VERTEX
  8
0
 62
     7
  5
735
 10
0.0
 20
0.0
 30
0.0
 70
   128
 71
     1
 72
     2
 73
    -3
  0
VERTEX
  8
0
 62
     7
  5
736
 10
0.0
 20
0.0
 30
0.0
 70
   128
 71
     3
 72
     4
 73
    -1
  0
SEQEND
  8
0
 62
     7
  5
737
  0
POLYLINE
  8
0
 62
     7
  5
738
 66
     1
 10
0.0
 20
0.0
 30
0.0
 70
    64
  0
VERTEX
  8
0
  5
739
 10
-46.906002
 20
2.490002
 30
4.0
 70
   192
  0
VERTEX
  8
0
  5
73A
 10
-46.778999
 20
2.413001
 30
4.0
 70
   192
  0
VERTEX
  8
0
  5
73B
 10
-46.906002
 20
2.490002
 30
0.0
 70
   192
  0
VERTEX
  8
0
  5
73C
 10
-46.778996
 20
2.413001
 30
0.0
 70
   192
  0
VERTEX
  8
0
 62
     7
  5
73D
 10
0.0
 20
0.0
 30
0.0
 70
   128
 71
     1
 72
    -2
 73
     3
  0
VERTEX
  8
0
 62
     7
  5
73E
 10
0.0
 20
0.0
 30
0.0
 70
   128
 71
     2
 72
     4
 73
    -3
  0
SEQEND
  8
0
 62
     7
  5
73F
  0
POLYLINE
  8
0
 62
     7
  5
740
 66
     1
 10
0.0
 20
0.0
 30
0.0
 70
    64
  0
VERTEX
  8
0
  5
741
 10
-48.303997
 20
2.922
 30
4.0
 70
   192
  0
VERTEX
  8
0
  5
742
 10
-48.101006
 20
2.896001
 30
0.0
 70
   192
  0
VERTEX
  8
0
  5
743
 10
-48.303997
 20
2.921999
 30
0.0
 70
   192
  0
VERTEX
  8
0
  5
744
 10
-48.101006
 20
2.896001
 30
4.0
 70
   192
  0
VERTEX
  8
0
 62
     7
  5
745
 10
0.0
 20
0.0
 30
0.0
 70
   128
 71
    -1
 72
     2
 73
     3
  0
VERTEX
  8
0
 62
     7
  5
746
 10
0.0
 20
0.0
 30
0.0
 70
   128
 71
     1
 72
     4
 73
    -2
  0
SEQEND
  8
0
 62
     7
  5
747
  0
POLYLINE
  8
0
 62
     7
  5
748
 66
     1
 10
0.0
 20
0.0
 30
0.0
 70
    64
  0
VERTEX
  8
0
  5
749
 10
-48.709999
 20
2.947
 30
4.0
 70
   192
  0
VERTEX
  8
0
  5
74A
 10
-48.709999
 20
2.947
 30
0.0
 70
   192
  0
VERTEX
  8
0
  5
74B
 10
-50.591
 20
2.947
 30
0.0
 70
   192
  0
VERTEX
  8
0
  5
74C
 10
-50.591
 20
2.947001
 30
4.0
 70
   192
  0
VERTEX
  8
0
 62
     7
  5
74D
 10
0.0
 20
0.0
 30
0.0
 70
   128
 71
     1
 72
     2
 73
    -3
  0
VERTEX
  8
0
 62
     7
  5
74E
 10
0.0
 20
0.0
 30
0.0
 70
   128
 71
     3
 72
     4
 73
    -1
  0
SEQEND
  8
0
 62
     7
  5
74F
  0
POLYLINE
  8
0
 62
     7
  5
750
 66
     1
 10
0.0
 20
0.0
 30
0.0
 70
    64
  0
VERTEX
  8
0
  5
751
 10
-50.591
 20
2.947001
 30
4.0
 70
   192
  0
VERTEX
  8
0
  5
752
 10
-50.591
 20
2.947
 30
0.0
 70
   192
  0
VERTEX
  8
0
  5
753
 10
-50.591
 20
-3.252
 30
0.0
 70
   192
  0
VERTEX
  8
0
  5
754
 10
-50.591
 20
-3.252
 30
4.0
 70
   192
  0
VERTEX
  8
0
 62
     7
  5
755
 10
0.0
 20
0.0
 30
0.0
 70
   128
 71
     1
 72
     2
 73
    -3
  0
VERTEX
  8
0
 62
     7
  5
756
 10
0.0
 20
0.0
 30
0.0
 70
   128
 71
     3
 72
     4
 73
    -1
  0
SEQEND
  8
0
 62
     7
  5
757
  0
POLYLINE
  8
0
 62
     7
  5
758
 66
     1
 10
0.0
 20
0.0
 30
0.0
 70
    64
  0
VERTEX
  8
0
  5
759
 10
-48.507004
 20
2.922
 30
4.0
 70
   192
  0
VERTEX
  8
0
  5
75A
 10
-48.710003
 20
2.947001
 30
4.0
 70
   192
  0
VERTEX
  8
0
  5
75B
 10
-48.507004
 20
2.922
 30
0.0
 70
   192
  0
VERTEX
  8
0
  5
75C
 10
-48.709995
 20
2.947
 30
0.0
 70
   192
  0
VERTEX
  8
0
 62
     7
  5
75D
 10
0.0
 20
0.0
 30
0.0
 70
   128
 71
     1
 72
    -3
 73
     2
  0
VERTEX
  8
0
 62
     7
  5
75E
 10
0.0
 20
0.0
 30
0.0
 70
   128
 71
    -2
 72
     3
 73
     4
  0
SEQEND
  8
0
 62
     7
  5
75F
  0
POLYLINE
  8
0
 62
     7
  5
760
 66
     1
 10
0.0
 20
0.0
 30
0.0
 70
    64
  0
VERTEX
  8
0
  5
761
 10
-48.506996
 20
2.922
 30
4.0
 70
   192
  0
VERTEX
  8
0
  5
762
 10
-48.304001
 20
2.922
 30
0.0
 70
   192
  0
VERTEX
  8
0
  5
763
 10
-48.304001
 20
2.922
 30
4.0
 70
   192
  0
VERTEX
  8
0
  5
764
 10
-48.506996
 20
2.922
 30
0.0
 70
   192
  0
VERTEX
  8
0
 62
     7
  5
765
 10
0.0
 20
0.0
 30
0.0
 70
   128
 71
     1
 72
     3
 73
    -2
  0
VERTEX
  8
0
 62
     7
  5
766
 10
0.0
 20
0.0
 30
0.0
 70
   128
 71
    -1
 72
     2
 73
     4
  0
SEQEND
  8
0
 62
     7
  5
767
  0
POLYLINE
  8
0
 62
     7
  5
768
 66
     1
 10
0.0
 20
0.0
 30
0.0
 70
    64
  0
VERTEX
  8
0
  5
769
 10
-48.100998
 20
2.895999
 30
4.0
 70
   192
  0
VERTEX
  8
0
  5
76A
 10
-48.100998
 20
2.895999
 30
0.0
 70
   192
  0
VERTEX
  8
0
  5
76B
 10
-47.922997
 20
2.844999
 30
0.0
 70
   192
  0
VERTEX
  8
0
  5
76C
 10
-47.922997
 20
2.844999
 30
4.0
 70
   192
  0
VERTEX
  8
0
 62
     7
  5
76D
 10
0.0
 20
0.0
 30
0.0
 70
   128
 71
    -1
 72
     3
 73
     2
  0
VERTEX
  8
0
 62
     7
  5
76E
 10
0.0
 20
0.0
 30
0.0
 70
   128
 71
    -3
 72
     1
 73
     4
  0
SEQEND
  8
0
 62
     7
  5
76F
  0
POLYLINE
  8
0
 62
     7
  5
770
 66
     1
 10
0.0
 20
0.0
 30
0.0
 70
    64
  0
VERTEX
  8
0
  5
771
 10
-47.718994
 20
2.819999
 30
4.0
 70
   192
  0
VERTEX
  8
0
  5
772
 10
-47.923
 20
2.845
 30
4.0
 70
   192
  0
VERTEX
  8
0
  5
773
 10
-47.923
 20
2.845
 30
0.0
 70
   192
  0
VERTEX
  8
0
  5
774
 10
-47.718994
 20
2.819999
 30
0.0
 70
   192
  0
VERTEX
  8
0
 62
     7
  5
775
 10
0.0
 20
0.0
 30
0.0
 70
   128
 71
    -1
 72
     3
 73
     2
  0
VERTEX
  8
0
 62
     7
  5
776
 10
0.0
 20
0.0
 30
0.0
 70
   128
 71
    -3
 72
     1
 73
     4
  0
SEQEND
  8
0
 62
     7
  5
777
  0
POLYLINE
  8
0
 62
     7
  5
778
 66
     1
 10
0.0
 20
0.0
 30
0.0
 70
    64
  0
VERTEX
  8
0
  5
779
 10
-47.567001
 20
2.744
 30
4.0
 70
   192
  0
VERTEX
  8
0
  5
77A
 10
-47.719002
 20
2.819999
 30
4.0
 70
   192
  0
VERTEX
  8
0
  5
77B
 10
-47.567001
 20
2.744
 30
0.0
 70
   192
  0
VERTEX
  8
0
  5
77C
 10
-47.718994
 20
2.819997
 30
0.0
 70
   192
  0
VERTEX
  8
0
 62
     7
  5
77D
 10
0.0
 20
0.0
 30
0.0
 70
   128
 71
     1
 72
    -3
 73
     2
  0
VERTEX
  8
0
 62
     7
  5
77E
 10
0.0
 20
0.0
 30
0.0
 70
   128
 71
    -2
 72
     3
 73
     4
  0
SEQEND
  8
0
 62
     7
  5
77F
  0
POLYLINE
  8
0
 62
     7
  5
780
 66
     1
 10
0.0
 20
0.0
 30
0.0
 70
    64
  0
VERTEX
  8
0
  5
781
 10
-47.21101
 20
2.642003
 30
4.0
 70
   192
  0
VERTEX
  8
0
  5
782
 10
-47.566998
 20
2.743999
 30
0.0
 70
   192
  0
VERTEX
  8
0
  5
783
 10
-47.21101
 20
2.642003
 30
0.0
 70
   192
  0
VERTEX
  8
0
  5
784
 10
-47.566998
 20
2.743999
 30
4.0
 70
   192
  0
VERTEX
  8
0
 62
     7
  5
785
 10
0.0
 20
0.0
 30
0.0
 70
   128
 71
     1
 72
     3
 73
    -2
  0
VERTEX
  8
0
 62
     7
  5
786
 10
0.0
 20
0.0
 30
0.0
 70
   128
 71
    -1
 72
     2
 73
     4
  0
SEQEND
  8
0
 62
     7
  5
787
  0
POLYLINE
  8
0
 62
     7
  5
788
 66
     1
 10
0.0
 20
0.0
 30
0.0
 70
    64
  0
VERTEX
  8
0
  5
789
 10
-47.210487
 20
2.641744
 30
4.0
 70
   192
  0
VERTEX
  8
0
  5
78A
 10
-47.210487
 20
2.641744
 30
0.0
 70
   192
  0
VERTEX
  8
0
  5
78B
 10
-47.05859
 20
2.565794
 30
0.0
 70
   192
  0
VERTEX
  8
0
  5
78C
 10
-47.05859
 20
2.565794
 30
4.0
 70
   192
  0
VERTEX
  8
0
 62
     7
  5
78D
 10
0.0
 20
0.0
 30
0.0
 70
   128
 71
    -1
 72
     3
 73
     2
  0
VERTEX
  8
0
 62
     7
  5
78E
 10
0.0
 20
0.0
 30
0.0
 70
   128
 71
    -3
 72
     1
 73
     4
  0
SEQEND
  8
0
 62
     7
  5
78F
  0
POLYLINE
  8
0
 62
     7
  5
790
 66
     1
 10
0.0
 20
0.0
 30
0.0
 70
    64
  0
VERTEX
  8
0
  5
791
 10
-47.058975
 20
2.565989
 30
4.0
 70
   192
  0
VERTEX
  8
0
  5
792
 10
-47.058975
 20
2.56599
 30
0.0
 70
   192
  0
VERTEX
  8
0
  5
793
 10
-46.906002
 20
2.490002
 30
0.0
 70
   192
  0
VERTEX
  8
0
  5
794
 10
-46.906002
 20
2.490002
 30
4.0
 70
   192
  0
VERTEX
  8
0
 62
     7
  5
795
 10
0.0
 20
0.0
 30
0.0
 70
   128
 71
    -1
 72
     3
 73
     2
  0
VERTEX
  8
0
 62
     7
  5
796
 10
0.0
 20
0.0
 30
0.0
 70
   128
 71
    -3
 72
     1
 73
     4
  0
SEQEND
  8
0
 62
     7
  5
797
  0
POLYLINE
  8
0
 62
     7
  5
798
 66
     1
 10
0.0
 20
0.0
 30
0.0
 70
    64
  0
VERTEX
  8
0
  5
799
 10
-46.397999
 20
2.109
 30
4.0
 70
   192
  0
VERTEX
  8
0
  5
79A
 10
-46.500008
 20
2.210004
 30
4.0
 70
   192
  0
VERTEX
  8
0
  5
79B
 10
-46.397999
 20
2.109
 30
0.0
 70
   192
  0
VERTEX
  8
0
  5
79C
 10
-46.499996
 20
2.209992
 30
0.0
 70
   192
  0
VERTEX
  8
0
 62
     7
  5
79D
 10
0.0
 20
0.0
 30
0.0
 70
   128
 71
     1
 72
    -3
 73
     2
  0
VERTEX
  8
0
 62
     7
  5
79E
 10
0.0
 20
0.0
 30
0.0
 70
   128
 71
    -2
 72
     3
 73
     4
  0
SEQEND
  8
0
 62
     7
  5
79F
  0
POLYLINE
  8
0
 62
     7
  5
7A0
 66
     1
 10
0.0
 20
0.0
 30
0.0
 70
    64
  0
VERTEX
  8
0
  5
7A1
 10
-46.397999
 20
2.109
 30
4.0
 70
   192
  0
VERTEX
  8
0
  5
7A2
 10
-46.271
 20
2.007
 30
0.0
 70
   192
  0
VERTEX
  8
0
  5
7A3
 10
-46.271
 20
2.007
 30
4.0
 70
   192
  0
VERTEX
  8
0
  5
7A4
 10
-46.397999
 20
2.109
 30
0.0
 70
   192
  0
VERTEX
  8
0
 62
     7
  5
7A5
 10
0.0
 20
0.0
 30
0.0
 70
   128
 71
     1
 72
     3
 73
    -2
  0
VERTEX
  8
0
 62
     7
  5
7A6
 10
0.0
 20
0.0
 30
0.0
 70
   128
 71
    -1
 72
     2
 73
     4
  0
SEQEND
  8
0
 62
     7
  5
7A7
  0
POLYLINE
  8
0
 62
     7
  5
7A8
 66
     1
 10
0.0
 20
0.0
 30
0.0
 70
    64
  0
VERTEX
  8
0
  5
7A9
 10
-46.373005
 20
-2.438999
 30
4.0
 70
   192
  0
VERTEX
  8
0
  5
7AA
 10
-46.373005
 20
-2.438999
 30
0.0
 70
   192
  0
VERTEX
  8
0
  5
7AB
 10
-46.5
 20
-2.539998
 30
0.0
 70
   192
  0
VERTEX
  8
0
  5
7AC
 10
-46.5
 20
-2.539998
 30
4.0
 70
   192
  0
VERTEX
  8
0
 62
     7
  5
7AD
 10
0.0
 20
0.0
 30
0.0
 70
   128
 71
    -1
 72
     3
 73
     2
  0
VERTEX
  8
0
 62
     7
  5
7AE
 10
0.0
 20
0.0
 30
0.0
 70
   128
 71
    -3
 72
     1
 73
     4
  0
SEQEND
  8
0
 62
     7
  5
7AF
  0
POLYLINE
  8
0
 62
     7
  5
7B0
 66
     1
 10
0.0
 20
0.0
 30
0.0
 70
    64
  0
VERTEX
  8
0
  5
7B1
 10
-46.600998
 20
-2.641996
 30
4.0
 70
   192
  0
VERTEX
  8
0
  5
7B2
 10
-46.5
 20
-2.539996
 30
4.0
 70
   192
  0
VERTEX
  8
0
  5
7B3
 10
-46.499996
 20
-2.539996
 30
0.0
 70
   192
  0
VERTEX
  8
0
  5
7B4
 10
-46.600998
 20
-2.641996
 30
0.0
 70
   192
  0
VERTEX
  8
0
 62
     7
  5
7B5
 10
0.0
 20
0.0
 30
0.0
 70
   128
 71
    -1
 72
     3
 73
     2
  0
VERTEX
  8
0
 62
     7
  5
7B6
 10
0.0
 20
0.0
 30
0.0
 70
   128
 71
    -3
 72
     1
 73
     4
  0
SEQEND
  8
0
 62
     7
  5
7B7
  0
POLYLINE
  8
0
 62
     7
  5
7B8
 66
     1
 10
0.0
 20
0.0
 30
0.0
 70
    64
  0
VERTEX
  8
0
  5
7B9
 10
-46.728413
 20
-2.718245
 30
4.0
 70
   192
  0
VERTEX
  8
0
  5
7BA
 10
-46.601292
 20
-2.642172
 30
4.0
 70
   192
  0
VERTEX
  8
0
  5
7BB
 10
-46.72821
 20
-2.718123
 30
0.0
 70
   192
  0
VERTEX
  8
0
  5
7BC
 10
-46.601292
 20
-2.642172
 30
0.0
 70
   192
  0
VERTEX
  8
0
 62
     7
  5
7BD
 10
0.0
 20
0.0
 30
0.0
 70
   128
 71
     1
 72
    -3
 73
     2
  0
VERTEX
  8
0
 62
     7
  5
7BE
 10
0.0
 20
0.0
 30
0.0
 70
   128
 71
    -2
 72
     3
 73
     4
  0
SEQEND
  8
0
 62
     7
  5
7BF
  0
POLYLINE
  8
0
 62
     7
  5
7C0
 66
     1
 10
0.0
 20
0.0
 30
0.0
 70
    64
  0
VERTEX
  8
0
  5
7C1
 10
-46.856049
 20
-2.79503
 30
4.0
 70
   192
  0
VERTEX
  8
0
  5
7C2
 10
-46.72789
 20
-2.717934
 30
0.0
 70
   192
  0
VERTEX
  8
0
  5
7C3
 10
-46.856049
 20
-2.79503
 30
0.0
 70
   192
  0
VERTEX
  8
0
  5
7C4
 10
-46.72789
 20
-2.717934
 30
4.0
 70
   192
  0
VERTEX
  8
0
 62
     7
  5
7C5
 10
0.0
 20
0.0
 30
0.0
 70
   128
 71
     1
 72
     3
 73
    -2
  0
VERTEX
  8
0
 62
     7
  5
7C6
 10
0.0
 20
0.0
 30
0.0
 70
   128
 71
    -1
 72
     2
 73
     4
  0
SEQEND
  8
0
 62
     7
  5
7C7
  0
POLYLINE
  8
0
 62
     7
  5
7C8
 66
     1
 10
0.0
 20
0.0
 30
0.0
 70
    64
  0
VERTEX
  8
0
  5
7C9
 10
-46.856014
 20
-2.795007
 30
4.0
 70
   192
  0
VERTEX
  8
0
  5
7CA
 10
-46.856014
 20
-2.795008
 30
0.0
 70
   192
  0
VERTEX
  8
0
  5
7CB
 10
-47.008007
 20
-2.871005
 30
0.0
 70
   192
  0
VERTEX
  8
0
  5
7CC
 10
-47.008007
 20
-2.871004
 30
4.0
 70
   192
  0
VERTEX
  8
0
 62
     7
  5
7CD
 10
0.0
 20
0.0
 30
0.0
 70
   128
 71
    -1
 72
     3
 73
     2
  0
VERTEX
  8
0
 62
     7
  5
7CE
 10
0.0
 20
0.0
 30
0.0
 70
   128
 71
    -3
 72
     1
 73
     4
  0
SEQEND
  8
0
 62
     7
  5
7CF
  0
POLYLINE
  8
0
 62
     7
  5
7D0
 66
     1
 10
0.0
 20
0.0
 30
0.0
 70
    64
  0
VERTEX
  8
0
  5
7D1
 10
-47.007996
 20
-2.870997
 30
4.0
 70
   192
  0
VERTEX
  8
0
  5
7D2
 10
-47.008007
 20
-2.871005
 30
0.0
 70
   192
  0
VERTEX
  8
0
  5
7D3
 10
-47.134983
 20
-2.94699
 30
0.0
 70
   192
  0
VERTEX
  8
0
  5
7D4
 10
-47.134983
 20
-2.94699
 30
4.0
 70
   192
  0
VERTEX
  8
0
 62
     7
  5
7D5
 10
0.0
 20
0.0
 30
0.0
 70
   128
 71
    -1
 72
     3
 73
     2
  0
VERTEX
  8
0
 62
     7
  5
7D6
 10
0.0
 20
0.0
 30
0.0
 70
   128
 71
    -3
 72
     1
 73
     4
  0
SEQEND
  8
0
 62
     7
  5
7D7
  0
POLYLINE
  8
0
 62
     7
  5
7D8
 66
     1
 10
0.0
 20
0.0
 30
0.0
 70
    64
  0
VERTEX
  8
0
  5
7D9
 10
-47.415234
 20
-3.049078
 30
4.0
 70
   192
  0
VERTEX
  8
0
  5
7DA
 10
-47.26202
 20
-2.998006
 30
4.0
 70
   192
  0
VERTEX
  8
0
  5
7DB
 10
-47.415234
 20
-3.049078
 30
0.0
 70
   192
  0
VERTEX
  8
0
  5
7DC
 10
-47.262024
 20
-2.998008
 30
0.0
 70
   192
  0
VERTEX
  8
0
 62
     7
  5
7DD
 10
0.0
 20
0.0
 30
0.0
 70
   128
 71
     1
 72
    -3
 73
     2
  0
VERTEX
  8
0
 62
     7
  5
7DE
 10
0.0
 20
0.0
 30
0.0
 70
   128
 71
    -2
 72
     3
 73
     4
  0
SEQEND
  8
0
 62
     7
  5
7DF
  0
POLYLINE
  8
0
 62
     7
  5
7E0
 66
     1
 10
0.0
 20
0.0
 30
0.0
 70
    64
  0
VERTEX
  8
0
  5
7E1
 10
-47.567013
 20
-3.100003
 30
4.0
 70
   192
  0
VERTEX
  8
0
  5
7E2
 10
-47.41526
 20
-3.049087
 30
0.0
 70
   192
  0
VERTEX
  8
0
  5
7E3
 10
-47.567013
 20
-3.100003
 30
0.0
 70
   192
  0
VERTEX
  8
0
  5
7E4
 10
-47.41526
 20
-3.049086
 30
4.0
 70
   192
  0
VERTEX
  8
0
 62
     7
  5
7E5
 10
0.0
 20
0.0
 30
0.0
 70
   128
 71
     1
 72
     3
 73
    -2
  0
VERTEX
  8
0
 62
     7
  5
7E6
 10
0.0
 20
0.0
 30
0.0
 70
   128
 71
    -1
 72
     2
 73
     4
  0
SEQEND
  8
0
 62
     7
  5
7E7
  0
POLYLINE
  8
0
 62
     7
  5
7E8
 66
     1
 10
0.0
 20
0.0
 30
0.0
 70
    64
  0
VERTEX
  8
0
  5
7E9
 10
-47.567001
 20
-3.100001
 30
0.0
 70
   192
  0
VERTEX
  8
0
  5
7EA
 10
-47.694004
 20
-3.150002
 30
0.0
 70
   192
  0
VERTEX
  8
0
  5
7EB
 10
-47.694004
 20
-3.150002
 30
4.0
 70
   192
  0
VERTEX
  8
0
  5
7EC
 10
-47.567001
 20
-3.100001
 30
4.0
 70
   192
  0
VERTEX
  8
0
 62
     7
  5
7ED
 10
0.0
 20
0.0
 30
0.0
 70
   128
 71
    -1
 72
     3
 73
     2
  0
VERTEX
  8
0
 62
     7
  5
7EE
 10
0.0
 20
0.0
 30
0.0
 70
   128
 71
    -3
 72
     1
 73
     4
  0
SEQEND
  8
0
 62
     7
  5
7EF
  0
POLYLINE
  8
0
 62
     7
  5
7F0
 66
     1
 10
0.0
 20
0.0
 30
0.0
 70
    64
  0
VERTEX
  8
0
  5
7F1
 10
-47.998997
 20
-3.200999
 30
4.0
 70
   192
  0
VERTEX
  8
0
  5
7F2
 10
-47.846909
 20
-3.175985
 30
4.0
 70
   192
  0
VERTEX
  8
0
  5
7F3
 10
-47.846981
 20
-3.175997
 30
0.0
 70
   192
  0
VERTEX
  8
0
  5
7F4
 10
-47.999039
 20
-3.201006
 30
0.0
 70
   192
  0
VERTEX
  8
0
 62
     7
  5
7F5
 10
0.0
 20
0.0
 30
0.0
 70
   128
 71
    -1
 72
     3
 73
     2
  0
VERTEX
  8
0
 62
     7
  5
7F6
 10
0.0
 20
0.0
 30
0.0
 70
   128
 71
    -3
 72
     1
 73
     4
  0
SEQEND
  8
0
 62
     7
  5
7F7
  0
POLYLINE
  8
0
 62
     7
  5
7F8
 66
     1
 10
0.0
 20
0.0
 30
0.0
 70
    64
  0
VERTEX
  8
0
  5
7F9
 10
-47.999046
 20
-3.201007
 30
4.0
 70
   192
  0
VERTEX
  8
0
  5
7FA
 10
-47.999004
 20
-3.201001
 30
0.0
 70
   192
  0
VERTEX
  8
0
  5
7FB
 10
-48.151146
 20
-3.227025
 30
4.0
 70
   192
  0
VERTEX
  8
0
  5
7FC
 10
-48.151077
 20
-3.227013
 30
0.0
 70
   192
  0
VERTEX
  8
0
 62
     7
  5
7FD
 10
0.0
 20
0.0
 30
0.0
 70
   128
 71
     1
 72
    -3
 73
     2
  0
VERTEX
  8
0
 62
     7
  5
7FE
 10
0.0
 20
0.0
 30
0.0
 70
   128
 71
    -2
 72
     3
 73
     4
  0
SEQEND
  8
0
 62
     7
  5
7FF
  0
POLYLINE
  8
0
 62
     7
  5
800
 66
     1
 10
0.0
 20
0.0
 30
0.0
 70
    64
  0
VERTEX
  8
0
  5
801
 10
-48.736
 20
-2.744
 30
4.0
 70
   192
  0
VERTEX
  8
0
  5
802
 10
-50.006001
 20
-2.744
 30
0.0
 70
   192
  0
VERTEX
  8
0
  5
803
 10
-48.736
 20
-2.744
 30
0.0
 70
   192
  0
VERTEX
  8
0
  5
804
 10
-50.006001
 20
-2.744
 30
4.0
 70
   192
  0
VERTEX
  8
0
 62
     7
  5
805
 10
0.0
 20
0.0
 30
0.0
 70
   128
 71
     1
 72
     3
 73
    -2
  0
VERTEX
  8
0
 62
     7
  5
806
 10
0.0
 20
0.0
 30
0.0
 70
   128
 71
    -1
 72
     2
 73
     4
  0
SEQEND
  8
0
 62
     7
  5
807
  0
POLYLINE
  8
0
 62
     7
  5
808
 66
     1
 10
0.0
 20
0.0
 30
0.0
 70
    64
  0
VERTEX
  8
0
  5
809
 10
-48.125996
 20
-2.668
 30
4.0
 70
   192
  0
VERTEX
  8
0
  5
80A
 10
-48.125996
 20
-2.668
 30
0.0
 70
   192
  0
VERTEX
  8
0
  5
80B
 10
-47.847004
 20
-2.591002
 30
0.0
 70
   192
  0
VERTEX
  8
0
  5
80C
 10
-47.847004
 20
-2.591002
 30
4.0
 70
   192
  0
VERTEX
  8
0
 62
     7
  5
80D
 10
0.0
 20
0.0
 30
0.0
 70
   128
 71
    -1
 72
     3
 73
     2
  0
VERTEX
  8
0
 62
     7
  5
80E
 10
0.0
 20
0.0
 30
0.0
 70
   128
 71
    -3
 72
     1
 73
     4
  0
SEQEND
  8
0
 62
     7
  5
80F
  0
POLYLINE
  8
0
 62
     7
  5
810
 66
     1
 10
0.0
 20
0.0
 30
0.0
 70
    64
  0
VERTEX
  8
0
  5
811
 10
-47.591995
 20
-2.489998
 30
4.0
 70
   192
  0
VERTEX
  8
0
  5
812
 10
-47.847
 20
-2.591
 30
4.0
 70
   192
  0
VERTEX
  8
0
  5
813
 10
-47.847
 20
-2.590999
 30
0.0
 70
   192
  0
VERTEX
  8
0
  5
814
 10
-47.591995
 20
-2.489998
 30
0.0
 70
   192
  0
VERTEX
  8
0
 62
     7
  5
815
 10
0.0
 20
0.0
 30
0.0
 70
   128
 71
    -1
 72
     3
 73
     2
  0
VERTEX
  8
0
 62
     7
  5
816
 10
0.0
 20
0.0
 30
0.0
 70
   128
 71
    -3
 72
     1
 73
     4
  0
SEQEND
  8
0
 62
     7
  5
817
  0
POLYLINE
  8
0
 62
     7
  5
818
 66
     1
 10
0.0
 20
0.0
 30
0.0
 70
    64
  0
VERTEX
  8
0
  5
819
 10
-47.364006
 20
-2.388006
 30
4.0
 70
   192
  0
VERTEX
  8
0
  5
81A
 10
-47.591988
 20
-2.489996
 30
4.0
 70
   192
  0
VERTEX
  8
0
  5
81B
 10
-47.364006
 20
-2.388006
 30
0.0
 70
   192
  0
VERTEX
  8
0
  5
81C
 10
-47.591976
 20
-2.48999
 30
0.0
 70
   192
  0
VERTEX
  8
0
 62
     7
  5
81D
 10
0.0
 20
0.0
 30
0.0
 70
   128
 71
     1
 72
    -3
 73
     2
  0
VERTEX
  8
0
 62
     7
  5
81E
 10
0.0
 20
0.0
 30
0.0
 70
   128
 71
    -2
 72
     3
 73
     4
  0
SEQEND
  8
0
 62
     7
  5
81F
  0
POLYLINE
  8
0
 62
     7
  5
820
 66
     1
 10
0.0
 20
0.0
 30
0.0
 70
    64
  0
VERTEX
  8
0
  5
821
 10
-47.134991
 20
-2.260996
 30
4.0
 70
   192
  0
VERTEX
  8
0
  5
822
 10
-47.363998
 20
-2.388
 30
0.0
 70
   192
  0
VERTEX
  8
0
  5
823
 10
-47.134991
 20
-2.260995
 30
0.0
 70
   192
  0
VERTEX
  8
0
  5
824
 10
-47.363987
 20
-2.387995
 30
4.0
 70
   192
  0
VERTEX
  8
0
 62
     7
  5
825
 10
0.0
 20
0.0
 30
0.0
 70
   128
 71
     1
 72
     3
 73
    -2
  0
VERTEX
  8
0
 62
     7
  5
826
 10
0.0
 20
0.0
 30
0.0
 70
   128
 71
    -1
 72
     2
 73
     4
  0
SEQEND
  8
0
 62
     7
  5
827
  0
POLYLINE
  8
0
 62
     7
  5
828
 66
     1
 10
0.0
 20
0.0
 30
0.0
 70
    64
  0
VERTEX
  8
0
  5
829
 10
-47.134983
 20
-2.260992
 30
4.0
 70
   192
  0
VERTEX
  8
0
  5
82A
 10
-47.134983
 20
-2.260992
 30
0.0
 70
   192
  0
VERTEX
  8
0
  5
82B
 10
-46.906002
 20
-2.109006
 30
0.0
 70
   192
  0
VERTEX
  8
0
  5
82C
 10
-46.906002
 20
-2.109006
 30
4.0
 70
   192
  0
VERTEX
  8
0
 62
     7
  5
82D
 10
0.0
 20
0.0
 30
0.0
 70
   128
 71
    -1
 72
     3
 73
     2
  0
VERTEX
  8
0
 62
     7
  5
82E
 10
0.0
 20
0.0
 30
0.0
 70
   128
 71
    -3
 72
     1
 73
     4
  0
SEQEND
  8
0
 62
     7
  5
82F
  0
POLYLINE
  8
0
 62
     7
  5
830
 66
     1
 10
0.0
 20
0.0
 30
0.0
 70
    64
  0
VERTEX
  8
0
  5
831
 10
-46.702995
 20
-1.955996
 30
4.0
 70
   192
  0
VERTEX
  8
0
  5
832
 10
-46.90601
 20
-2.10901
 30
4.0
 70
   192
  0
VERTEX
  8
0
  5
833
 10
-46.90601
 20
-2.10901
 30
0.0
 70
   192
  0
VERTEX
  8
0
  5
834
 10
-46.702995
 20
-1.955996
 30
0.0
 70
   192
  0
VERTEX
  8
0
 62
     7
  5
835
 10
0.0
 20
0.0
 30
0.0
 70
   128
 71
    -1
 72
     3
 73
     2
  0
VERTEX
  8
0
 62
     7
  5
836
 10
0.0
 20
0.0
 30
0.0
 70
   128
 71
    -3
 72
     1
 73
     4
  0
SEQEND
  8
0
 62
     7
  5
837
  0
POLYLINE
  8
0
 62
     7
  5
838
 66
     1
 10
0.0
 20
0.0
 30
0.0
 70
    64
  0
VERTEX
  8
0
  5
839
 10
-46.525009
 20
-1.753011
 30
4.0
 70
   192
  0
VERTEX
  8
0
  5
83A
 10
-46.702995
 20
-1.955998
 30
4.0
 70
   192
  0
VERTEX
  8
0
  5
83B
 10
-46.525009
 20
-1.753011
 30
0.0
 70
   192
  0
VERTEX
  8
0
  5
83C
 10
-46.702995
 20
-1.955997
 30
0.0
 70
   192
  0
VERTEX
  8
0
 62
     7
  5
83D
 10
0.0
 20
0.0
 30
0.0
 70
   128
 71
     1
 72
    -3
 73
     2
  0
VERTEX
  8
0
 62
     7
  5
83E
 10
0.0
 20
0.0
 30
0.0
 70
   128
 71
    -2
 72
     3
 73
     4
  0
SEQEND
  8
0
 62
     7
  5
83F
  0
POLYLINE
  8
0
 62
     7
  5
840
 66
     1
 10
0.0
 20
0.0
 30
0.0
 70
    64
  0
VERTEX
  8
0
  5
841
 10
-46.373009
 20
-1.550004
 30
4.0
 70
   192
  0
VERTEX
  8
0
  5
842
 10
-46.525009
 20
-1.753009
 30
0.0
 70
   192
  0
VERTEX
  8
0
  5
843
 10
-46.373009
 20
-1.550003
 30
0.0
 70
   192
  0
VERTEX
  8
0
  5
844
 10
-46.525009
 20
-1.753009
 30
4.0
 70
   192
  0
VERTEX
  8
0
 62
     7
  5
845
 10
0.0
 20
0.0
 30
0.0
 70
   128
 71
     1
 72
     3
 73
    -2
  0
VERTEX
  8
0
 62
     7
  5
846
 10
0.0
 20
0.0
 30
0.0
 70
   128
 71
    -1
 72
     2
 73
     4
  0
SEQEND
  8
0
 62
     7
  5
847
  0
POLYLINE
  8
0
 62
     7
  5
848
 66
     1
 10
0.0
 20
0.0
 30
0.0
 70
    64
  0
VERTEX
  8
0
  5
849
 10
-46.372997
 20
-1.549992
 30
4.0
 70
   192
  0
VERTEX
  8
0
  5
84A
 10
-46.372997
 20
-1.549992
 30
0.0
 70
   192
  0
VERTEX
  8
0
  5
84B
 10
-46.245995
 20
-1.320994
 30
0.0
 70
   192
  0
VERTEX
  8
0
  5
84C
 10
-46.245995
 20
-1.320994
 30
4.0
 70
   192
  0
VERTEX
  8
0
 62
     7
  5
84D
 10
0.0
 20
0.0
 30
0.0
 70
   128
 71
    -1
 72
     3
 73
     2
  0
VERTEX
  8
0
 62
     7
  5
84E
 10
0.0
 20
0.0
 30
0.0
 70
   128
 71
    -3
 72
     1
 73
     4
  0
SEQEND
  8
0
 62
     7
  5
84F
  0
POLYLINE
  8
0
 62
     7
  5
850
 66
     1
 10
0.0
 20
0.0
 30
0.0
 70
    64
  0
VERTEX
  8
0
  5
851
 10
-46.144001
 20
-1.092001
 30
4.0
 70
   192
  0
VERTEX
  8
0
  5
852
 10
-46.245991
 20
-1.320982
 30
4.0
 70
   192
  0
VERTEX
  8
0
  5
853
 10
-46.245998
 20
-1.321003
 30
0.0
 70
   192
  0
VERTEX
  8
0
  5
854
 10
-46.144001
 20
-1.092001
 30
0.0
 70
   192
  0
VERTEX
  8
0
 62
     7
  5
855
 10
0.0
 20
0.0
 30
0.0
 70
   128
 71
    -1
 72
     3
 73
     2
  0
VERTEX
  8
0
 62
     7
  5
856
 10
0.0
 20
0.0
 30
0.0
 70
   128
 71
    -3
 72
     1
 73
     4
  0
SEQEND
  8
0
 62
     7
  5
857
  0
POLYLINE
  8
0
 62
     7
  5
858
 66
     1
 10
0.0
 20
0.0
 30
0.0
 70
    64
  0
VERTEX
  8
0
  5
859
 10
-46.067902
 20
-0.812657
 30
4.0
 70
   192
  0
VERTEX
  8
0
  5
85A
 10
-46.143997
 20
-1.091999
 30
4.0
 70
   192
  0
VERTEX
  8
0
  5
85B
 10
-46.067902
 20
-0.812658
 30
0.0
 70
   192
  0
VERTEX
  8
0
  5
85C
 10
-46.143997
 20
-1.091999
 30
0.0
 70
   192
  0
VERTEX
  8
0
 62
     7
  5
85D
 10
0.0
 20
0.0
 30
0.0
 70
   128
 71
     1
 72
    -3
 73
     2
  0
VERTEX
  8
0
 62
     7
  5
85E
 10
0.0
 20
0.0
 30
0.0
 70
   128
 71
    -2
 72
     3
 73
     4
  0
SEQEND
  8
0
 62
     7
  5
85F
  0
POLYLINE
  8
0
 62
     7
  5
860
 66
     1
 10
0.0
 20
0.0
 30
0.0
 70
    64
  0
VERTEX
  8
0
  5
861
 10
-45.992004
 20
-0.533009
 30
4.0
 70
   192
  0
VERTEX
  8
0
  5
862
 10
-46.067303
 20
-0.810438
 30
0.0
 70
   192
  0
VERTEX
  8
0
  5
863
 10
-45.992004
 20
-0.533009
 30
0.0
 70
   192
  0
VERTEX
  8
0
  5
864
 10
-46.067924
 20
-0.812731
 30
4.0
 70
   192
  0
VERTEX
  8
0
 62
     7
  5
865
 10
0.0
 20
0.0
 30
0.0
 70
   128
 71
     1
 72
     3
 73
    -2
  0
VERTEX
  8
0
 62
     7
  5
866
 10
0.0
 20
0.0
 30
0.0
 70
   128
 71
    -1
 72
     2
 73
     4
  0
SEQEND
  8
0
 62
     7
  5
867
  0
POLYLINE
  8
0
 62
     7
  5
868
 66
     1
 10
0.0
 20
0.0
 30
0.0
 70
    64
  0
VERTEX
  8
0
  5
869
 10
-45.992004
 20
-0.533016
 30
4.0
 70
   192
  0
VERTEX
  8
0
  5
86A
 10
-45.992004
 20
-0.533016
 30
0.0
 70
   192
  0
VERTEX
  8
0
  5
86B
 10
-45.966
 20
-0.228004
 30
0.0
 70
   192
  0
VERTEX
  8
0
  5
86C
 10
-45.966
 20
-0.228004
 30
4.0
 70
   192
  0
VERTEX
  8
0
 62
     7
  5
86D
 10
0.0
 20
0.0
 30
0.0
 70
   128
 71
    -1
 72
     3
 73
     2
  0
VERTEX
  8
0
 62
     7
  5
86E
 10
0.0
 20
0.0
 30
0.0
 70
   128
 71
    -3
 72
     1
 73
     4
  0
SEQEND
  8
0
 62
     7
  5
86F
  0
POLYLINE
  8
0
 62
     7
  5
870
 66
     1
 10
0.0
 20
0.0
 30
0.0
 70
    64
  0
VERTEX
  8
0
  5
871
 10
-46.067997
 20
0.533011
 30
4.0
 70
   192
  0
VERTEX
  8
0
  5
872
 10
-46.016994
 20
0.279021
 30
4.0
 70
   192
  0
VERTEX
  8
0
  5
873
 10
-46.016994
 20
0.279021
 30
0.0
 70
   192
  0
VERTEX
  8
0
  5
874
 10
-46.068001
 20
0.533011
 30
0.0
 70
   192
  0
VERTEX
  8
0
 62
     7
  5
875
 10
0.0
 20
0.0
 30
0.0
 70
   128
 71
    -1
 72
     3
 73
     2
  0
VERTEX
  8
0
 62
     7
  5
876
 10
0.0
 20
0.0
 30
0.0
 70
   128
 71
    -3
 72
     1
 73
     4
  0
SEQEND
  8
0
 62
     7
  5
877
  0
POLYLINE
  8
0
 62
     7
  5
878
 66
     1
 10
0.0
 20
0.0
 30
0.0
 70
    64
  0
VERTEX
  8
0
  5
879
 10
-46.144001
 20
0.786996
 30
4.0
 70
   192
  0
VERTEX
  8
0
  5
87A
 10
-46.068005
 20
0.53301
 30
4.0
 70
   192
  0
VERTEX
  8
0
  5
87B
 10
-46.144001
 20
0.786996
 30
0.0
 70
   192
  0
VERTEX
  8
0
  5
87C
 10
-46.068005
 20
0.53301
 30
0.0
 70
   192
  0
VERTEX
  8
0
 62
     7
  5
87D
 10
0.0
 20
0.0
 30
0.0
 70
   128
 71
     1
 72
    -3
 73
     2
  0
VERTEX
  8
0
 62
     7
  5
87E
 10
0.0
 20
0.0
 30
0.0
 70
   128
 71
    -2
 72
     3
 73
     4
  0
SEQEND
  8
0
 62
     7
  5
87F
  0
POLYLINE
  8
0
 62
     7
  5
880
 66
     1
 10
0.0
 20
0.0
 30
0.0
 70
    64
  0
VERTEX
  8
0
  5
881
 10
-46.245998
 20
1.016001
 30
4.0
 70
   192
  0
VERTEX
  8
0
  5
882
 10
-46.144001
 20
0.786996
 30
0.0
 70
   192
  0
VERTEX
  8
0
  5
883
 10
-46.245998
 20
1.016001
 30
0.0
 70
   192
  0
VERTEX
  8
0
  5
884
 10
-46.144001
 20
0.786996
 30
4.0
 70
   192
  0
VERTEX
  8
0
 62
     7
  5
885
 10
0.0
 20
0.0
 30
0.0
 70
   128
 71
     1
 72
     3
 73
    -2
  0
VERTEX
  8
0
 62
     7
  5
886
 10
0.0
 20
0.0
 30
0.0
 70
   128
 71
    -1
 72
     2
 73
     4
  0
SEQEND
  8
0
 62
     7
  5
887
  0
POLYLINE
  8
0
 62
     7
  5
888
 66
     1
 10
0.0
 20
0.0
 30
0.0
 70
    64
  0
VERTEX
  8
0
  5
889
 10
-46.245991
 20
1.015985
 30
4.0
 70
   192
  0
VERTEX
  8
0
  5
88A
 10
-46.245991
 20
1.015985
 30
0.0
 70
   192
  0
VERTEX
  8
0
  5
88B
 10
-46.373009
 20
1.219007
 30
0.0
 70
   192
  0
VERTEX
  8
0
  5
88C
 10
-46.37302
 20
1.21903
 30
4.0
 70
   192
  0
VERTEX
  8
0
 62
     7
  5
88D
 10
0.0
 20
0.0
 30
0.0
 70
   128
 71
    -1
 72
     3
 73
     2
  0
VERTEX
  8
0
 62
     7
  5
88E
 10
0.0
 20
0.0
 30
0.0
 70
   128
 71
    -3
 72
     1
 73
     4
  0
SEQEND
  8
0
 62
     7
  5
88F
  0
POLYLINE
  8
0
 62
     7
  5
890
 66
     1
 10
0.0
 20
0.0
 30
0.0
 70
    64
  0
VERTEX
  8
0
  5
891
 10
-46.525002
 20
1.421999
 30
4.0
 70
   192
  0
VERTEX
  8
0
  5
892
 10
-46.373005
 20
1.219001
 30
4.0
 70
   192
  0
VERTEX
  8
0
  5
893
 10
-46.373005
 20
1.219001
 30
0.0
 70
   192
  0
VERTEX
  8
0
  5
894
 10
-46.525002
 20
1.421999
 30
0.0
 70
   192
  0
VERTEX
  8
0
 62
     7
  5
895
 10
0.0
 20
0.0
 30
0.0
 70
   128
 71
    -1
 72
     3
 73
     2
  0
VERTEX
  8
0
 62
     7
  5
896
 10
0.0
 20
0.0
 30
0.0
 70
   128
 71
    -3
 72
     1
 73
     4
  0
SEQEND
  8
0
 62
     7
  5
897
  0
POLYLINE
  8
0
 62
     7
  5
898
 66
     1
 10
0.0
 20
0.0
 30
0.0
 70
    64
  0
VERTEX
  8
0
  5
899
 10
-46.702995
 20
1.625994
 30
4.0
 70
   192
  0
VERTEX
  8
0
  5
89A
 10
-46.524994
 20
1.421991
 30
4.0
 70
   192
  0
VERTEX
  8
0
  5
89B
 10
-46.702995
 20
1.625994
 30
0.0
 70
   192
  0
VERTEX
  8
0
  5
89C
 10
-46.524994
 20
1.421991
 30
0.0
 70
   192
  0
VERTEX
  8
0
 62
     7
  5
89D
 10
0.0
 20
0.0
 30
0.0
 70
   128
 71
     1
 72
    -3
 73
     2
  0
VERTEX
  8
0
 62
     7
  5
89E
 10
0.0
 20
0.0
 30
0.0
 70
   128
 71
    -2
 72
     3
 73
     4
  0
SEQEND
  8
0
 62
     7
  5
89F
  0
POLYLINE
  8
0
 62
     7
  5
8A0
 66
     1
 10
0.0
 20
0.0
 30
0.0
 70
    64
  0
VERTEX
  8
0
  5
8A1
 10
-46.805012
 20
1.727009
 30
4.0
 70
   192
  0
VERTEX
  8
0
  5
8A2
 10
-46.702995
 20
1.625993
 30
0.0
 70
   192
  0
VERTEX
  8
0
  5
8A3
 10
-46.805012
 20
1.727009
 30
0.0
 70
   192
  0
VERTEX
  8
0
  5
8A4
 10
-46.702995
 20
1.625993
 30
4.0
 70
   192
  0
VERTEX
  8
0
 62
     7
  5
8A5
 10
0.0
 20
0.0
 30
0.0
 70
   128
 71
     1
 72
     3
 73
    -2
  0
VERTEX
  8
0
 62
     7
  5
8A6
 10
0.0
 20
0.0
 30
0.0
 70
   128
 71
    -1
 72
     2
 73
     4
  0
SEQEND
  8
0
 62
     7
  5
8A7
  0
POLYLINE
  8
0
 62
     7
  5
8A8
 66
     1
 10
0.0
 20
0.0
 30
0.0
 70
    64
  0
VERTEX
  8
0
  5
8A9
 10
-46.805
 20
1.727005
 30
4.0
 70
   192
  0
VERTEX
  8
0
  5
8AA
 10
-46.805
 20
1.727005
 30
0.0
 70
   192
  0
VERTEX
  8
0
  5
8AB
 10
-46.905949
 20
1.803967
 30
0.0
 70
   192
  0
VERTEX
  8
0
  5
8AC
 10
-46.905949
 20
1.803967
 30
4.0
 70
   192
  0
VERTEX
  8
0
 62
     7
  5
8AD
 10
0.0
 20
0.0
 30
0.0
 70
   128
 71
    -1
 72
     3
 73
     2
  0
VERTEX
  8
0
 62
     7
  5
8AE
 10
0.0
 20
0.0
 30
0.0
 70
   128
 71
    -3
 72
     1
 73
     4
  0
SEQEND
  8
0
 62
     7
  5
8AF
  0
POLYLINE
  8
0
 62
     7
  5
8B0
 66
     1
 10
0.0
 20
0.0
 30
0.0
 70
    64
  0
VERTEX
  8
0
  5
8B1
 10
-47.110008
 20
1.956006
 30
4.0
 70
   192
  0
VERTEX
  8
0
  5
8B2
 10
-46.905907
 20
1.803932
 30
4.0
 70
   192
  0
VERTEX
  8
0
  5
8B3
 10
-46.905907
 20
1.803932
 30
0.0
 70
   192
  0
VERTEX
  8
0
  5
8B4
 10
-47.110008
 20
1.956006
 30
0.0
 70
   192
  0
VERTEX
  8
0
 62
     7
  5
8B5
 10
0.0
 20
0.0
 30
0.0
 70
   128
 71
    -1
 72
     3
 73
     2
  0
VERTEX
  8
0
 62
     7
  5
8B6
 10
0.0
 20
0.0
 30
0.0
 70
   128
 71
    -3
 72
     1
 73
     4
  0
SEQEND
  8
0
 62
     7
  5
8B7
  0
POLYLINE
  8
0
 62
     7
  5
8B8
 66
     1
 10
0.0
 20
0.0
 30
0.0
 70
    64
  0
VERTEX
  8
0
  5
8B9
 10
-47.237015
 20
2.032007
 30
4.0
 70
   192
  0
VERTEX
  8
0
  5
8BA
 10
-47.109997
 20
1.955997
 30
4.0
 70
   192
  0
VERTEX
  8
0
  5
8BB
 10
-47.237015
 20
2.032007
 30
0.0
 70
   192
  0
VERTEX
  8
0
  5
8BC
 10
-47.109997
 20
1.955997
 30
0.0
 70
   192
  0
VERTEX
  8
0
 62
     7
  5
8BD
 10
0.0
 20
0.0
 30
0.0
 70
   128
 71
     1
 72
    -3
 73
     2
  0
VERTEX
  8
0
 62
     7
  5
8BE
 10
0.0
 20
0.0
 30
0.0
 70
   128
 71
    -2
 72
     3
 73
     4
  0
SEQEND
  8
0
 62
     7
  5
8BF
  0
POLYLINE
  8
0
 62
     7
  5
8C0
 66
     1
 10
0.0
 20
0.0
 30
0.0
 70
    64
  0
VERTEX
  8
0
  5
8C1
 10
-47.618008
 20
2.210002
 30
4.0
 70
   192
  0
VERTEX
  8
0
  5
8C2
 10
-47.490997
 20
2.158998
 30
0.0
 70
   192
  0
VERTEX
  8
0
  5
8C3
 10
-47.618008
 20
2.210002
 30
0.0
 70
   192
  0
VERTEX
  8
0
  5
8C4
 10
-47.490997
 20
2.158998
 30
4.0
 70
   192
  0
VERTEX
  8
0
 62
     7
  5
8C5
 10
0.0
 20
0.0
 30
0.0
 70
   128
 71
     1
 72
     3
 73
    -2
  0
VERTEX
  8
0
 62
     7
  5
8C6
 10
0.0
 20
0.0
 30
0.0
 70
   128
 71
    -1
 72
     2
 73
     4
  0
SEQEND
  8
0
 62
     7
  5
8C7
  0
POLYLINE
  8
0
 62
     7
  5
8C8
 66
     1
 10
0.0
 20
0.0
 30
0.0
 70
    64
  0
VERTEX
  8
0
  5
8C9
 10
-47.618015
 20
2.210007
 30
4.0
 70
   192
  0
VERTEX
  8
0
  5
8CA
 10
-47.618015
 20
2.210007
 30
0.0
 70
   192
  0
VERTEX
  8
0
  5
8CB
 10
-47.769989
 20
2.260998
 30
0.0
 70
   192
  0
VERTEX
  8
0
  5
8CC
 10
-47.769989
 20
2.260999
 30
4.0
 70
   192
  0
VERTEX
  8
0
 62
     7
  5
8CD
 10
0.0
 20
0.0
 30
0.0
 70
   128
 71
    -1
 72
     3
 73
     2
  0
VERTEX
  8
0
 62
     7
  5
8CE
 10
0.0
 20
0.0
 30
0.0
 70
   128
 71
    -3
 72
     1
 73
     4
  0
SEQEND
  8
0
 62
     7
  5
8CF
  0
POLYLINE
  8
0
 62
     7
  5
8D0
 66
     1
 10
0.0
 20
0.0
 30
0.0
 70
    64
  0
VERTEX
  8
0
  5
8D1
 10
-48.227997
 20
2.362999
 30
4.0
 70
   192
  0
VERTEX
  8
0
  5
8D2
 10
-48.075012
 20
2.337002
 30
4.0
 70
   192
  0
VERTEX
  8
0
  5
8D3
 10
-48.075012
 20
2.337002
 30
0.0
 70
   192
  0
VERTEX
  8
0
  5
8D4
 10
-48.227997
 20
2.362999
 30
0.0
 70
   192
  0
VERTEX
  8
0
 62
     7
  5
8D5
 10
0.0
 20
0.0
 30
0.0
 70
   128
 71
    -1
 72
     3
 73
     2
  0
VERTEX
  8
0
 62
     7
  5
8D6
 10
0.0
 20
0.0
 30
0.0
 70
   128
 71
    -3
 72
     1
 73
     4
  0
SEQEND
  8
0
 62
     7
  5
8D7
  0
POLYLINE
  8
0
 62
     7
  5
8D8
 66
     1
 10
0.0
 20
0.0
 30
0.0
 70
    64
  0
VERTEX
  8
0
  5
8D9
 10
-48.405998
 20
2.388
 30
4.0
 70
   192
  0
VERTEX
  8
0
  5
8DA
 10
-48.227997
 20
2.362999
 30
4.0
 70
   192
  0
VERTEX
  8
0
  5
8DB
 10
-48.405998
 20
2.388
 30
0.0
 70
   192
  0
VERTEX
  8
0
  5
8DC
 10
-48.227997
 20
2.362999
 30
0.0
 70
   192
  0
VERTEX
  8
0
 62
     7
  5
8DD
 10
0.0
 20
0.0
 30
0.0
 70
   128
 71
     1
 72
    -3
 73
     2
  0
VERTEX
  8
0
 62
     7
  5
8DE
 10
0.0
 20
0.0
 30
0.0
 70
   128
 71
    -2
 72
     3
 73
     4
  0
SEQEND
  8
0
 62
     7
  5
8DF
  0
POLYLINE
  8
0
 62
     7
  5
8E0
 66
     1
 10
0.0
 20
0.0
 30
0.0
 70
    64
  0
VERTEX
  8
0
  5
8E1
 10
-50.005997
 20
2.413
 30
4.0
 70
   192
  0
VERTEX
  8
0
  5
8E2
 10
-48.760998
 20
2.413
 30
0.0
 70
   192
  0
VERTEX
  8
0
  5
8E3
 10
-50.005997
 20
2.413
 30
0.0
 70
   192
  0
VERTEX
  8
0
  5
8E4
 10
-48.760998
 20
2.413
 30
4.0
 70
   192
  0
VERTEX
  8
0
 62
     7
  5
8E5
 10
0.0
 20
0.0
 30
0.0
 70
   128
 71
     1
 72
     3
 73
    -2
  0
VERTEX
  8
0
 62
     7
  5
8E6
 10
0.0
 20
0.0
 30
0.0
 70
   128
 71
    -1
 72
     2
 73
     4
  0
SEQEND
  8
0
 62
     7
  5
8E7
  0
POLYLINE
  8
0
 62
     7
  5
8E8
 66
     1
 10
0.0
 20
0.0
 30
0.0
 70
    64
  0
VERTEX
  8
0
  5
8E9
 10
-50.006001
 20
2.413
 30
0.0
 70
   192
  0
VERTEX
  8
0
  5
8EA
 10
-50.006001
 20
-2.744
 30
0.0
 70
   192
  0
VERTEX
  8
0
  5
8EB
 10
-50.006001
 20
-2.744
 30
4.0
 70
   192
  0
VERTEX
  8
0
  5
8EC
 10
-50.006001
 20
2.413
 30
4.0
 70
   192
  0
VERTEX
  8
0
 62
     7
  5
8ED
 10
0.0
 20
0.0
 30
0.0
 70
   128
 71
    -1
 72
     3
 73
     2
  0
VERTEX
  8
0
 62
     7
  5
8EE
 10
0.0
 20
0.0
 30
0.0
 70
   128
 71
    -3
 72
     1
 73
     4
  0
SEQEND
  8
0
 62
     7
  5
8EF
  0
POLYLINE
  8
0
 62
     7
  5
8F0
 66
     1
 10
0.0
 20
0.0
 30
0.0
 70
    64
  0
VERTEX
  8
0
  5
8F1
 10
-48.582993
 20
2.388
 30
4.0
 70
   192
  0
VERTEX
  8
0
  5
8F2
 10
-48.761002
 20
2.413001
 30
4.0
 70
   192
  0
VERTEX
  8
0
  5
8F3
 10
-48.760998
 20
2.413
 30
0.0
 70
   192
  0
VERTEX
  8
0
  5
8F4
 10
-48.582993
 20
2.388
 30
0.0
 70
   192
  0
VERTEX
  8
0
 62
     7
  5
8F5
 10
0.0
 20
0.0
 30
0.0
 70
   128
 71
     1
 72
     2
 73
    -3
  0
VERTEX
  8
0
 62
     7
  5
8F6
 10
0.0
 20
0.0
 30
0.0
 70
   128
 71
     3
 72
     4
 73
    -1
  0
SEQEND
  8
0
 62
     7
  5
8F7
  0
POLYLINE
  8
0
 62
     7
  5
8F8
 66
     1
 10
0.0
 20
0.0
 30
0.0
 70
    64
  0
VERTEX
  8
0
  5
8F9
 10
-48.582993
 20
2.388
 30
4.0
 70
   192
  0
VERTEX
  8
0
  5
8FA
 10
-48.582993
 20
2.388
 30
0.0
 70
   192
  0
VERTEX
  8
0
  5
8FB
 10
-48.405998
 20
2.388
 30
4.0
 70
   192
  0
VERTEX
  8
0
  5
8FC
 10
-48.405998
 20
2.388
 30
0.0
 70
   192
  0
VERTEX
  8
0
 62
     7
  5
8FD
 10
0.0
 20
0.0
 30
0.0
 70
   128
 71
     1
 72
    -2
 73
     3
  0
VERTEX
  8
0
 62
     7
  5
8FE
 10
0.0
 20
0.0
 30
0.0
 70
   128
 71
     2
 72
     4
 73
    -3
  0
SEQEND
  8
0
 62
     7
  5
8FF
  0
POLYLINE
  8
0
 62
     7
  5
900
 66
     1
 10
0.0
 20
0.0
 30
0.0
 70
    64
  0
VERTEX
  8
0
  5
901
 10
-47.923
 20
2.286
 30
4.0
 70
   192
  0
VERTEX
  8
0
  5
902
 10
-48.074993
 20
2.336998
 30
0.0
 70
   192
  0
VERTEX
  8
0
  5
903
 10
-47.923
 20
2.286
 30
0.0
 70
   192
  0
VERTEX
  8
0
  5
904
 10
-48.075005
 20
2.337
 30
4.0
 70
   192
  0
VERTEX
  8
0
 62
     7
  5
905
 10
0.0
 20
0.0
 30
0.0
 70
   128
 71
    -1
 72
     2
 73
     3
  0
VERTEX
  8
0
 62
     7
  5
906
 10
0.0
 20
0.0
 30
0.0
 70
   128
 71
     1
 72
     4
 73
    -2
  0
SEQEND
  8
0
 62
     7
  5
907
  0
POLYLINE
  8
0
 62
     7
  5
908
 66
     1
 10
0.0
 20
0.0
 30
0.0
 70
    64
  0
VERTEX
  8
0
  5
909
 10
-47.923
 20
2.286001
 30
0.0
 70
   192
  0
VERTEX
  8
0
  5
90A
 10
-47.77
 20
2.261001
 30
0.0
 70
   192
  0
VERTEX
  8
0
  5
90B
 10
-47.769997
 20
2.261
 30
4.0
 70
   192
  0
VERTEX
  8
0
  5
90C
 10
-47.923
 20
2.286001
 30
4.0
 70
   192
  0
VERTEX
  8
0
 62
     7
  5
90D
 10
0.0
 20
0.0
 30
0.0
 70
   128
 71
     1
 72
     2
 73
    -3
  0
VERTEX
  8
0
 62
     7
  5
90E
 10
0.0
 20
0.0
 30
0.0
 70
   128
 71
     3
 72
     4
 73
    -1
  0
SEQEND
  8
0
 62
     7
  5
90F
  0
POLYLINE
  8
0
 62
     7
  5
910
 66
     1
 10
0.0
 20
0.0
 30
0.0
 70
    64
  0
VERTEX
  8
0
  5
911
 10
-47.363995
 20
2.082999
 30
4.0
 70
   192
  0
VERTEX
  8
0
  5
912
 10
-47.491005
 20
2.159005
 30
4.0
 70
   192
  0
VERTEX
  8
0
  5
913
 10
-47.491005
 20
2.159005
 30
0.0
 70
   192
  0
VERTEX
  8
0
  5
914
 10
-47.363995
 20
2.082999
 30
0.0
 70
   192
  0
VERTEX
  8
0
 62
     7
  5
915
 10
0.0
 20
0.0
 30
0.0
 70
   128
 71
     1
 72
     2
 73
    -3
  0
VERTEX
  8
0
 62
     7
  5
916
 10
0.0
 20
0.0
 30
0.0
 70
   128
 71
     3
 72
     4
 73
    -1
  0
SEQEND
  8
0
 62
     7
  5
917
  0
POLYLINE
  8
0
 62
     7
  5
918
 66
     1
 10
0.0
 20
0.0
 30
0.0
 70
    64
  0
VERTEX
  8
0
  5
919
 10
-47.363995
 20
2.082997
 30
4.0
 70
   192
  0
VERTEX
  8
0
  5
91A
 10
-47.363995
 20
2.082997
 30
0.0
 70
   192
  0
VERTEX
  8
0
  5
91B
 10
-47.236996
 20
2.031998
 30
4.0
 70
   192
  0
VERTEX
  8
0
  5
91C
 10
-47.236996
 20
2.031998
 30
0.0
 70
   192
  0
VERTEX
  8
0
 62
     7
  5
91D
 10
0.0
 20
0.0
 30
0.0
 70
   128
 71
     1
 72
    -2
 73
     3
  0
VERTEX
  8
0
 62
     7
  5
91E
 10
0.0
 20
0.0
 30
0.0
 70
   128
 71
     2
 72
     4
 73
    -3
  0
SEQEND
  8
0
 62
     7
  5
91F
  0
POLYLINE
  8
0
 62
     7
  5
920
 66
     1
 10
0.0
 20
0.0
 30
0.0
 70
    64
  0
VERTEX
  8
0
  5
921
 10
-45.991962
 20
0.024658
 30
4.0
 70
   192
  0
VERTEX
  8
0
  5
922
 10
-46.01685
 20
0.277519
 30
0.0
 70
   192
  0
VERTEX
  8
0
  5
923
 10
-45.991962
 20
0.024658
 30
0.0
 70
   192
  0
VERTEX
  8
0
  5
924
 10
-46.016949
 20
0.278515
 30
4.0
 70
   192
  0
VERTEX
  8
0
 62
     7
  5
925
 10
0.0
 20
0.0
 30
0.0
 70
   128
 71
    -1
 72
     2
 73
     3
  0
VERTEX
  8
0
 62
     7
  5
926
 10
0.0
 20
0.0
 30
0.0
 70
   128
 71
     1
 72
     4
 73
    -2
  0
SEQEND
  8
0
 62
     7
  5
927
  0
POLYLINE
  8
0
 62
     7
  5
928
 66
     1
 10
0.0
 20
0.0
 30
0.0
 70
    64
  0
VERTEX
  8
0
  5
929
 10
-45.991947
 20
0.024463
 30
0.0
 70
   192
  0
VERTEX
  8
0
  5
92A
 10
-45.966064
 20
-0.227374
 30
0.0
 70
   192
  0
VERTEX
  8
0
  5
92B
 10
-45.966064
 20
-0.227374
 30
4.0
 70
   192
  0
VERTEX
  8
0
  5
92C
 10
-45.991947
 20
0.024463
 30
4.0
 70
   192
  0
VERTEX
  8
0
 62
     7
  5
92D
 10
0.0
 20
0.0
 30
0.0
 70
   128
 71
     1
 72
     2
 73
    -3
  0
VERTEX
  8
0
 62
     7
  5
92E
 10
0.0
 20
0.0
 30
0.0
 70
   128
 71
     3
 72
     4
 73
    -1
  0
SEQEND
  8
0
 62
     7
  5
92F
  0
POLYLINE
  8
0
 62
     7
  5
930
 66
     1
 10
0.0
 20
0.0
 30
0.0
 70
    64
  0
VERTEX
  8
0
  5
931
 10
-48.430996
 20
-2.692999
 30
4.0
 70
   192
  0
VERTEX
  8
0
  5
932
 10
-48.125988
 20
-2.667999
 30
4.0
 70
   192
  0
VERTEX
  8
0
  5
933
 10
-48.125996
 20
-2.668
 30
0.0
 70
   192
  0
VERTEX
  8
0
  5
934
 10
-48.431
 20
-2.693
 30
0.0
 70
   192
  0
VERTEX
  8
0
 62
     7
  5
935
 10
0.0
 20
0.0
 30
0.0
 70
   128
 71
     1
 72
     2
 73
    -3
  0
VERTEX
  8
0
 62
     7
  5
936
 10
0.0
 20
0.0
 30
0.0
 70
   128
 71
     3
 72
     4
 73
    -1
  0
SEQEND
  8
0
 62
     7
  5
937
  0
POLYLINE
  8
0
 62
     7
  5
938
 66
     1
 10
0.0
 20
0.0
 30
0.0
 70
    64
  0
VERTEX
  8
0
  5
939
 10
-48.431
 20
-2.693
 30
0.0
 70
   192
  0
VERTEX
  8
0
  5
93A
 10
-48.735996
 20
-2.743999
 30
0.0
 70
   192
  0
VERTEX
  8
0
  5
93B
 10
-48.430996
 20
-2.692999
 30
4.0
 70
   192
  0
VERTEX
  8
0
  5
93C
 10
-48.735996
 20
-2.743999
 30
4.0
 70
   192
  0
VERTEX
  8
0
 62
     7
  5
93D
 10
0.0
 20
0.0
 30
0.0
 70
   128
 71
     1
 72
    -2
 73
     3
  0
VERTEX
  8
0
 62
     7
  5
93E
 10
0.0
 20
0.0
 30
0.0
 70
   128
 71
     2
 72
     4
 73
    -3
  0
SEQEND
  8
0
 62
     7
  5
93F
  0
ENDBLK
  8
0
  5
940
  0
BLOCK
  8
0
  5
942
  2
AME_MAT
 70
    64
 10
0.0
 20
0.0
 30
0.0
  1
AME_MAT
  0
ENDBLK
  8
0
  5
943
  0
ENDSEC
  0
SECTION
  2
ENTITIES
  0
POLYLINE
  8
7
  6
CONTINUOUS
  5
1
 66
     1
 10
0.0
 20
0.0
 30
0.0
  0
VERTEX
  8
7
  5
2
 10
-50.591
 20
-3.252
 30
0.0
  0
VERTEX
  8
7
  5
3
 10
-50.591
 20
2.947
 30
0.0
  0
VERTEX
  8
7
  5
4
 10
-48.914
 20
2.947
 30
0.0
  0
VERTEX
  8
7
  5
5
 10
-48.71
 20
2.947
 30
0.0
  0
VERTEX
  8
7
  5
6
 10
-48.507
 20
2.922
 30
0.0
  0
VERTEX
  8
7
  5
7
 10
-48.304
 20
2.922
 30
0.0
  0
VERTEX
  8
7
  5
8
 10
-48.101
 20
2.896
 30
0.0
  0
VERTEX
  8
7
  5
9
 10
-47.923
 20
2.845
 30
0.0
  0
VERTEX
  8
7
  5
A
 10
-47.719
 20
2.82
 30
0.0
  0
VERTEX
  8
7
  5
B
 10
-47.567
 20
2.744
 30
0.0
  0
VERTEX
  8
7
  5
C
 10
-47.389
 20
2.693
 30
0.0
  0
VERTEX
  8
7
  5
D
 10
-47.211
 20
2.642
 30
0.0
  0
VERTEX
  8
7
  5
E
 10
-47.059
 20
2.566
 30
0.0
  0
VERTEX
  8
7
  5
F
 10
-46.906
 20
2.49
 30
0.0
  0
VERTEX
  8
7
  5
10
 10
-46.779
 20
2.413
 30
0.0
  0
VERTEX
  8
7
  5
11
 10
-46.627
 20
2.312
 30
0.0
  0
VERTEX
  8
7
  5
12
 10
-46.5
 20
2.21
 30
0.0
  0
VERTEX
  8
7
  5
13
 10
-46.398
 20
2.109
 30
0.0
  0
VERTEX
  8
7
  5
14
 10
-46.271
 20
2.007
 30
0.0
  0
VERTEX
  8
7
  5
15
 10
-46.068
 20
1.778
 30
0.0
  0
VERTEX
  8
7
  5
16
 10
-45.89
 20
1.55
 30
0.0
  0
VERTEX
  8
7
  5
17
 10
-45.737
 20
1.295
 30
0.0
  0
VERTEX
  8
7
  5
18
 10
-45.61
 20
1.016
 30
0.0
  0
VERTEX
  8
7
  5
19
 10
-45.509
 20
0.711
 30
0.0
  0
VERTEX
  8
7
  5
1A
 10
-45.433
 20
0.406
 30
0.0
  0
VERTEX
  8
7
  5
1B
 10
-45.407
 20
0.101
 30
0.0
  0
VERTEX
  8
7
  5
1C
 10
-45.382
 20
-0.228
 30
0.0
  0
VERTEX
  8
7
  5
1D
 10
-45.407
 20
-0.559
 30
0.0
  0
VERTEX
  8
7
  5
1E
 10
-45.458
 20
-0.889
 30
0.0
  0
VERTEX
  8
7
  5
1F
 10
-45.534
 20
-1.194
 30
0.0
  0
VERTEX
  8
7
  5
20
 10
-45.661
 20
-1.473
 30
0.0
  0
VERTEX
  8
7
  5
21
 10
-45.814
 20
-1.753
 30
0.0
  0
VERTEX
  8
7
  5
22
 10
-45.966
 20
-2.007
 30
0.0
  0
VERTEX
  8
7
  5
23
 10
-46.169
 20
-2.236
 30
0.0
  0
VERTEX
  8
7
  5
24
 10
-46.373
 20
-2.439
 30
0.0
  0
VERTEX
  8
7
  5
25
 10
-46.5
 20
-2.54
 30
0.0
  0
VERTEX
  8
7
  5
26
 10
-46.601
 20
-2.642
 30
0.0
  0
VERTEX
  8
7
  5
27
 10
-46.728
 20
-2.718
 30
0.0
  0
VERTEX
  8
7
  5
28
 10
-46.856
 20
-2.795
 30
0.0
  0
VERTEX
  8
7
  5
29
 10
-47.008
 20
-2.871
 30
0.0
  0
VERTEX
  8
7
  5
2A
 10
-47.135
 20
-2.947
 30
0.0
  0
VERTEX
  8
7
  5
2B
 10
-47.262
 20
-2.998
 30
0.0
  0
VERTEX
  8
7
  5
2C
 10
-47.415
 20
-3.049
 30
0.0
  0
VERTEX
  8
7
  5
2D
 10
-47.567
 20
-3.1
 30
0.0
  0
VERTEX
  8
7
  5
2E
 10
-47.694
 20
-3.15
 30
0.0
  0
VERTEX
  8
7
  5
2F
 10
-47.847
 20
-3.176
 30
0.0
  0
VERTEX
  8
7
  5
30
 10
-47.999
 20
-3.201
 30
0.0
  0
VERTEX
  8
7
  5
31
 10
-48.151
 20
-3.227
 30
0.0
  0
VERTEX
  8
7
  5
32
 10
-48.304
 20
-3.252
 30
0.0
  0
VERTEX
  8
7
  5
33
 10
-48.456
 20
-3.252
 30
0.0
  0
VERTEX
  8
7
  5
34
 10
-48.609
 20
-3.252
 30
0.0
  0
VERTEX
  8
7
  5
35
 10
-50.591
 20
-3.252
 30
0.0
  0
SEQEND
  8
7
  5
36
  0
POLYLINE
  8
7
  6
CONTINUOUS
  5
37
 66
     1
 10
0.0
 20
0.0
 30
0.0
  0
VERTEX
  8
7
  5
38
 10
-50.006
 20
2.413
 30
0.0
  0
VERTEX
  8
7
  5
39
 10
-50.006
 20
-2.744
 30
0.0
  0
VERTEX
  8
7
  5
3A
 10
-49.041
 20
-2.744
 30
0.0
  0
VERTEX
  8
7
  5
3B
 10
-48.736
 20
-2.744
 30
0.0
  0
VERTEX
  8
7
  5
3C
 10
-48.431
 20
-2.693
 30
0.0
  0
VERTEX
  8
7
  5
3D
 10
-48.126
 20
-2.668
 30
0.0
  0
VERTEX
  8
7
  5
3E
 10
-47.847
 20
-2.591
 30
0.0
  0
VERTEX
  8
7
  5
3F
 10
-47.592
 20
-2.49
 30
0.0
  0
VERTEX
  8
7
  5
40
 10
-47.364
 20
-2.388
 30
0.0
  0
VERTEX
  8
7
  5
41
 10
-47.135
 20
-2.261
 30
0.0
  0
VERTEX
  8
7
  5
42
 10
-46.906
 20
-2.109
 30
0.0
  0
VERTEX
  8
7
  5
43
 10
-46.703
 20
-1.956
 30
0.0
  0
VERTEX
  8
7
  5
44
 10
-46.525
 20
-1.753
 30
0.0
  0
VERTEX
  8
7
  5
45
 10
-46.373
 20
-1.55
 30
0.0
  0
VERTEX
  8
7
  5
46
 10
-46.246
 20
-1.321
 30
0.0
  0
VERTEX
  8
7
  5
47
 10
-46.144
 20
-1.092
 30
0.0
  0
VERTEX
  8
7
  5
48
 10
-46.068
 20
-0.813
 30
0.0
  0
VERTEX
  8
7
  5
49
 10
-45.992
 20
-0.533
 30
0.0
  0
VERTEX
  8
7
  5
4A
 10
-45.966
 20
-0.228
 30
0.0
  0
VERTEX
  8
7
  5
4B
 10
-45.992
 20
0.025
 30
0.0
  0
VERTEX
  8
7
  5
4C
 10
-46.017
 20
0.279
 30
0.0
  0
VERTEX
  8
7
  5
4D
 10
-46.068
 20
0.533
 30
0.0
  0
VERTEX
  8
7
  5
4E
 10
-46.144
 20
0.787
 30
0.0
  0
VERTEX
  8
7
  5
4F
 10
-46.246
 20
1.016
 30
0.0
  0
VERTEX
  8
7
  5
50
 10
-46.373
 20
1.219
 30
0.0
  0
VERTEX
  8
7
  5
51
 10
-46.525
 20
1.422
 30
0.0
  0
VERTEX
  8
7
  5
52
 10
-46.703
 20
1.626
 30
0.0
  0
VERTEX
  8
7
  5
53
 10
-46.805
 20
1.727
 30
0.0
  0
VERTEX
  8
7
  5
54
 10
-46.906
 20
1.804
 30
0.0
  0
VERTEX
  8
7
  5
55
 10
-47.008
 20
1.88
 30
0.0
  0
VERTEX
  8
7
  5
56
 10
-47.11
 20
1.956
 30
0.0
  0
VERTEX
  8
7
  5
57
 10
-47.237
 20
2.032
 30
0.0
  0
VERTEX
  8
7
  5
58
 10
-47.364
 20
2.083
 30
0.0
  0
VERTEX
  8
7
  5
59
 10
-47.491
 20
2.159
 30
0.0
  0
VERTEX
  8
7
  5
5A
 10
-47.618
 20
2.21
 30
0.0
  0
VERTEX
  8
7
  5
5B
 10
-47.77
 20
2.261
 30
0.0
  0
VERTEX
  8
7
  5
5C
 10
-47.923
 20
2.286
 30
0.0
  0
VERTEX
  8
7
  5
5D
 10
-48.075
 20
2.337
 30
0.0
  0
VERTEX
  8
7
  5
5E
 10
-48.228
 20
2.363
 30
0.0
  0
VERTEX
  8
7
  5
5F
 10
-48.406
 20
2.388
 30
0.0
  0
VERTEX
  8
7
  5
60
 10
-48.583
 20
2.388
 30
0.0
  0
VERTEX
  8
7
  5
61
 10
-48.761
 20
2.413
 30
0.0
  0
VERTEX
  8
7
  5
62
 10
-48.939
 20
2.413
 30
0.0
  0
VERTEX
  8
7
  5
63
 10
-50.006
 20
2.413
 30
0.0
  0
SEQEND
  8
7
  5
64
  0
INSERT
  8
AME_FRZ
  5
CB
  2
AME_NIL
 10
0.0
 20
0.0
 30
0.0
  0
INSERT
  8
AME_FRZ
  5
CE
  2
AME_SOL
 10
0.0
 20
0.0
 30
0.0
1001
AME_SOL
1000
1.02
1000
sq cm
1070
     3
1070
     0
1070
     3
1000
wire
1040
0.0
1000
NONE
1040
1.0
1000
cm
1000
gm
1000
MILD_STEEL
1070
    25
1000
CSG
1070
     3
1070
     2
1070
     3
1000
cu cm
1070
     4
1070
     0
1005
CB
  0
INSERT
  8
AME_FRZ
  5
15E
  2
*U2
 10
-50.591
 20
-3.252
 30
0.0
1001
AME_SOL
1002
{
1070
     0
1071
  1511732
1070
  9736
1070
    52
1040
4.0
1040
0.0
1010
0.0
1020
0.0
1030
0.0
1010
0.0
1020
6.199
1030
0.0
1010
1.676998
1020
6.199
1030
0.0
1010
1.881001
1020
6.199
1030
0.0
1010
2.084
1020
6.174
1030
0.0
1010
2.286999
1020
6.174
1030
0.0
1010
2.489998
1020
6.148
1030
0.0
1010
2.667999
1020
6.097
1030
0.0
1010
2.871998
1020
6.072
1030
0.0
1010
3.023998
1020
5.996
1030
0.0
1010
3.202
1020
5.945
1030
0.0
1010
3.380001
1020
5.894
1030
0.0
1010
3.532001
1020
5.818
1030
0.0
1010
3.685001
1020
5.742
1030
0.0
1010
3.812
1020
5.665
1030
0.0
1010
3.964001
1020
5.564
1030
0.0
1010
4.091
1020
5.462
1030
0.0
1010
4.193001
1020
5.361
1030
0.0
1010
4.32
1020
5.259
1030
0.0
1010
4.522999
1020
5.03
1030
0.0
1010
4.701
1020
4.802
1030
0.0
1010
4.854
1020
4.547
1030
0.0
1010
4.980999
1020
4.268
1030
0.0
1010
5.082001
1020
3.963
1030
0.0
1010
5.158001
1020
3.658
1030
0.0
1010
5.183998
1020
3.353
1030
0.0
1010
5.209
1020
3.024
1030
0.0
1010
5.183998
1020
2.693
1030
0.0
1010
5.132999
1020
2.363
1030
0.0
1010
5.056999
1020
2.058
1030
0.0
1010
4.93
1020
1.779
1030
0.0
1010
4.777
1020
1.499
1030
0.0
1010
4.625
1020
1.245
1030
0.0
1010
4.422001
1020
1.016
1030
0.0
1010
4.217999
1020
0.813
1030
0.0
1010
4.091
1020
0.712
1030
0.0
1010
3.989998
1020
0.61
1030
0.0
1010
3.862999
1020
0.534
1030
0.0
1010
3.735001
1020
0.457
1030
0.0
1010
3.583
1020
0.381
1030
0.0
1010
3.456001
1020
0.305
1030
0.0
1010
3.328999
1020
0.254
1030
0.0
1010
3.175999
1020
0.203
1030
0.0
1010
3.023998
1020
0.152
1030
0.0
1010
2.896999
1020
0.102
1030
0.0
1010
2.743999
1020
0.076
1030
0.0
1010
2.591999
1020
0.051
1030
0.0
1010
2.439999
1020
0.025
1030
0.0
1010
2.286999
1020
0.0
1030
0.0
1010
2.134998
1020
0.0
1030
0.0
1010
1.981998
1020
0.0
1030
0.0
1010
0.0
1020
0.0
1030
0.0
1005
0
1005
0
1005
520
1040
136.799507
1040
1.0
1000
MILD_STEEL
1000
0
1010
-50.591
1020
-3.252
1030
0.0
1010
0.0
1020
0.0
1030
1.0
1040
0.0
1002
}
  0
INSERT
  8
AME_FRZ
  5
1DD
  2
*U3
 10
-50.006001
 20
2.413
 30
0.0
1001
AME_SOL
1002
{
1070
     0
1071
  1377156
1070
  1544
1070
    44
1040
4.0
1040
0.0
1010
0.0
1020
0.0
1030
0.0
1010
0.0
1020
-5.157
1030
0.0
1010
0.965
1020
-5.157
1030
0.0
1010
1.27
1020
-5.157
1030
0.0
1010
1.575001
1020
-5.106
1030
0.0
1010
1.880001
1020
-5.081
1030
0.0
1010
2.159
1020
-5.004
1030
0.0
1010
2.414001
1020
-4.903
1030
0.0
1010
2.642002
1020
-4.801
1030
0.0
1010
2.871002
1020
-4.674
1030
0.0
1010
3.100002
1020
-4.522
1030
0.0
1010
3.303001
1020
-4.369
1030
0.0
1010
3.480999
1020
-4.166
1030
0.0
1010
3.632999
1020
-3.963
1030
0.0
1010
3.760002
1020
-3.734
1030
0.0
1010
3.862
1020
-3.505
1030
0.0
1010
3.938
1020
-3.226
1030
0.0
1010
4.014
1020
-2.946
1030
0.0
1010
4.040001
1020
-2.641
1030
0.0
1010
4.014
1020
-2.388
1030
0.0
1010
3.989002
1020
-2.134
1030
0.0
1010
3.938
1020
-1.88
1030
0.0
1010
3.862
1020
-1.626
1030
0.0
1010
3.760002
1020
-1.397
1030
0.0
1010
3.632999
1020
-1.194
1030
0.0
1010
3.480999
1020
-0.991
1030
0.0
1010
3.303001
1020
-0.787
1030
0.0
1010
3.201
1020
-0.686
1030
0.0
1010
3.100002
1020
-0.609
1030
0.0
1010
2.998001
1020
-0.533
1030
0.0
1010
2.896
1020
-0.457
1030
0.0
1010
2.769001
1020
-0.381
1030
0.0
1010
2.642002
1020
-0.33
1030
0.0
1010
2.514999
1020
-0.254
1030
0.0
1010
2.388
1020
-0.203
1030
0.0
1010
2.236
1020
-0.152
1030
0.0
1010
2.083
1020
-0.127
1030
0.0
1010
1.931
1020
-0.076
1030
0.0
1010
1.778
1020
-0.05
1030
0.0
1010
1.600002
1020
-0.025
1030
0.0
1010
1.423
1020
-0.025
1030
0.0
1010
1.244999
1020
0.0
1030
0.0
1010
1.067001
1020
0.0
1030
0.0
1010
0.0
1020
0.0
1030
0.0
1005
0
1005
0
1005
520
1040
0.0
1040
1.0
1000
MILD_STEEL
1000
0
1010
-50.006001
1020
2.413
1030
0.0
1010
0.0
1020
0.0
1030
1.0
1040
0.0
1002
}
  0
INSERT
  8
0
  5
520
  2
*U6
 10
0.0
 20
0.0
 30
0.0
1001
AME_SOL
1002
{
1070
     0
1071
  1307472
1070
  9223
1070
     0
1005
15E
1005
1DD
1005
941
1005
521
1005
0
1040
165.719
1040
1.0
1000
MILD_STEEL
1000
0
1002
}
  0
INSERT
  8
AME_FRZ
  5
521
  2
AME_NIL
 10
1.0
 20
1.0
 30
1.0
1001
AME_SOL
1004
E903A9FB0100F0FFFFFF000052F7590001000000075E4AC23C2E50C09A7557BA548635C21EA93C40BB06804001000000FBF204005DF242C2E7A82FC0123E33BAA4B841C2E84E2CC0990580400100844EAC6C1200010000000100C0020000844E000050B3F7B10C2B39330000803F937E7C3FAFE1283E0000
1004
0000AAF142C2B29D2FC00000000005000000000000000000000000000000000000000000844E000050B3F7B10C2B39330000803F937E7C3FAFE1283E00000000AAF142C2B29D2FC00000000005000000000000000000000000000000000001000000FBF204000ABA41C251652CC0123E33BA538040C24FB5
1004
2AC0990580400100844EBC6D1200010000000100BF020000844E0000546375B18A1C3B330000803FF4247F3F124EA73D0000000058B941C21C5A2CC00000000005000000000000000000000000000000000000000000844E0000546375B18A1C3B330000803FF4247F3F124EA73D0000000058B941C21C5A
1004
2CC00000000005000000000000000000000000000000000001000000FBF2040082F837C20C2C6ABE123E33BA7CDC37C22167D23C990580400100844ECC6E120001000000010024030000844E00005DC13AB34D8B99B10000803F405FD1BDA0A87E3F000000002FDD37C2C07869BE00000000050000000000
1004
00000000000000000000000000000000844E00005DC13AB34D8B99B10000803F405FD1BDA0A87E3F000000002FDD37C2C87869BE0000000005000000000000000000000000000000000001000000FBF204001B1238C2DB32C73C123E33BA1CF737C2BA328F3E990580400100844EDC6F1200010000000100
1004
23030000844E00001AD63AB32B1A93B10000803F8196C8BDE7C47E3F00000000CFF737C200CDCC3C0000000005000000000000000000000000000000000000000000844E00001AD63AB32B1A93B10000803F8196C8BDE7C47E3F00000000CEF737C2FECCCC3C000000000500000000000000000000000000
1004
0000000001000000FBF204006F753DC216010240123E33BAFDF13CC2135B0540990580400100844EC0A1140001000000010088030000844E000040EC8BB260372EB30000803F808F6DBF54CCBE3E00000000B0F23CC24A0C02400000000005000000000000000000000000000000000000000000844E0000
1004
40EC8BB260372EB30000803F808F6DBF54CCBE3E00000000B0F23CC24A0C02400000000005000000000000000000000000000000000001000000FBF204007CF73DC2AB440540123E33BA09743DC242380A40990580400100844ED0A2140001000000010087030000844E00002DCEC0B2FF1821B30000803F
1004
07AC5BBF4A74033F00000000BC743DC2DF4F05400000000005000000000000000000000000000000000000000000844E00002DCEC0B2FF1821B30000803F07AC5BBF4A74033F00000000BB743DC2DF4F05400000000005000000000000000000000000000000000001000000FBF20400DAB13FC205A91040
1004
123E33BAC8133FC206591240990580400100844EE0A31400010000000100EC030000844E00002233F2B1254839B30000803F40A67CBF9721253E000000007B143FC239B410400000000005000000000000000000000000000000000000000000844E00002233F2B1254839B30000803F40A67CBF9721253E
1004
000000007A143FC239B410400000000005000000000000000000000000000000000001000000FBF20400804D40C29F421240123E33BA73B03FC29C9C1540990580400100844EA0761700010000000100EB030000844E00006FE06EB2CCFC31B30000803FF2B372BF96DDA23E0000000027B13FC2D34D1240
1004
0000000005000000000000000000000000000000000000000000844E00006FE06EB2CCFC31B30000803FF2B372BF96DDA23E0000000027B13FC2D34D12400000000005000000000000000000000000000000000001000000FBF20400B15542C2CAC91840123E33BA0A9F41C232E01840990580400100844E
1004
B077170001000000010050040000844E0000EDAD09272EBD3BB30000803F000080BF2EBD3BB300000000BE9F41C2FED418400000000005000000000000000000000000000000000000000000844E0000EDAD09272EBD3BB30000803F000080BF2EBD3BB300000000BE9F41C2FED418400000000005000000
1004
000000000000000000000000000001000000FBF20400F70B43C2CAC91840123E33BA4B5442C2CC791A40990580400100844EC07817000100000001004F040000844E000047E4D0B10EEA39B30000803F08837DBF006C0E3E00000000FE5442C2FED418400000000005000000000000000000000000000000
1004
000000000000844E000047E4D0B10EEA39B30000803F08837DBF006C0E3E00000000FD5442C2FED418400000000005000000000000000000000000000000000001000000FBF20400D80648C2E7A82FC0123E33BA710548C2CC791A40990580400100844ED0791700FFFF00000100D5040000844E00002EBD
1004
3BB3000000000000803F000000000000803F00000000250648C2B29D2FC00000000005000000000000000000000000000000000000000000844E00002EBD3BB3000000000000803F000000000000803F00000000250648C2B29D2FC000000000050000000000000000000000000000000000FFFFFFFFFBF2
1004
0400D80648C264631A40123E33BA900A43C2CC791A40990580400100844EE07A1700FFFF00000100D4040000844E0000EDAD09272EBD3B330000803F0000803F2EBD3BB300000000250648C2986E1A400000000005000000000000000000000000000000000000000000844E0000EDAD09272EBD3B330000
1004
803F0000803F2EBD3BB300000000250648C2986E1A4000000000050000000000000000000000000000000000FFFFFFFFFBF2040071A041C230301740123E33BAC5E840C232E01840990580400100844EF07B1700FFFF00000100D2040000844E00005AE5D03109EA39330000803F01837D3FBC6C0EBE0000
1004
0000BE9F41C2FED418400000000005000000000000000000000000000000000000000000844E00005AE5D03109EA39330000803F01837D3FBC6C0EBE00000000BE9F41C2FED4184000000000050000000000000000000000000000000000FFFFFFFFFBF204002CEA40C234861540123E33BA1A4C40C29846
1004
1740990580400100844E18A41300FFFF00000100D1040000844E0000C49EFB31E71539330000803FBE617C3FD68D2BBE0000000079E940C2643B17400000000005000000000000000000000000000000000000000000844E0000C49EFB31E71539330000803FBE617C3FD68D2BBE0000000079E940C2643B
1004
174000000000050000000000000000000000000000000000FFFFFFFFFBF204002E153FC270650D40123E33BA22783EC26DBF1040990580400100844EA87D1700FFFF00000100CF040000844E00006DE06E32CCFC31330000803FF2B3723F95DDA2BE000000007B143FC239B4104000000000050000000000
1004
00000000000000000000000000000000844E00006DE06E32CCFC31330000803FF2B3723F95DDA2BE000000007A143FC239B4104000000000050000000000000000000000000000000000FFFFFFFFFBF2040088793EC2DA210A40123E33BA15F63DC2D87B0D40990580400100844EB87E1700FFFF00000100
1004
CE040000844E00005EEC8B325A372E330000803F788F6D3F7CCCBEBE00000000D5783EC2A4700D400000000005000000000000000000000000000000000000000000844E00005EEC8B325A372E330000803F788F6D3F7CCCBEBE00000000D5783EC2A4700D40000000000500000000000000000000000000
1004
00000000FFFFFFFFFBF2040063F33CC2CD47FA3F123E33BAF06F3CC27E170240990580400100844EC87F1700FFFF00000100CC040000844E000061CFC032A21821330000803F89AB5B3F1C7503BF00000000B0F23CC24A0C02400000000005000000000000000000000000000000000000000000844E0000
1004
61CFC032A21821330000803F89AB5B3F1C7503BF00000000B0F23CC24A0C024000000000050000000000000000000000000000000000FFFFFFFFFBF2040057713CC212D3E63F123E33BA0B9F3BC29D74FA3F990580400100844ED8801700FFFF00000100CB040000844E0000DB56E0329B8B16330000803F
1004
6D484D3F39F418BF00000000A4703CC2355EFA3F0000000005000000000000000000000000000000000000000000844E0000DB56E0329B8B16330000803F6D484D3F39F418BF00000000A4703CC2355EFA3F00000000050000000000000000000000000000000000FFFFFFFFFBF2040071A03BC2EEF7DC3F
1004
123E33BA9F373BC2E0FFE63F990580400100844EE4E41400FFFF00000100CA040000844E0000D6A5E3326C4C15330000803F30954B3FB1351BBF00000000BE9F3BC279E9E63F0000000005000000000000000000000000000000000000000000844E0000D6A5E3326C4C15330000803F30954B3FB1351BBF
1004
00000000BD9F3BC279E9E63F00000000050000000000000000000000000000000000FFFFFFFFFBF2040005393BC25E0AD03F123E33BA2BCF3AC2BE24DD3F990580400100844ED81F1700FFFF00000100C9040000844E00005F180433936705330000803FEDE8353FD91F34BF0000000052383BC2560EDD3F
1004
0000000005000000000000000000000000000000000000000000844E00005F180433936705330000803FEDE8353FD91F34BF0000000052383BC2560EDD3F00000000050000000000000000000000000000000000FFFFFFFFFBF2040092D03AC2B1EDB53F123E33BAE6183AC22D37D03F990580400100844E
1004
E8201700FFFF00000100C8040000844E0000E2750D33F0DBF6320000803FD84E283F15E540BF00000000DFCF3AC2C520D03F0000000005000000000000000000000000000000000000000000844E0000E2750D33F0DBF6320000803FD84E283F15E540BF00000000DFCF3AC2C420D03F0000000005000000
1004
0000000000000000000000000000FFFFFFFFFBF204004D1A3AC2C9F19B3F123E33BA417D39C2811AB63F990580400100844EF8211700FFFF00000100C7040000844E0000A7471633D00CE1320000803F4870193FC4EB4CBF000000009A193AC21A04B63F0000000005000000000000000000000000000000
1004
000000000000844E0000A7471633D00CE1320000803F4870193FC4EB4CBF000000009A193AC21904B63F00000000050000000000000000000000000000000000FFFFFFFFFBF20400A77E39C2E3F5813F123E33BA33FB38C2991E9C3F990580400100844E08231700FFFF00000100C6040000844E00004328
1004
1F33A725C7320000803F2CC7073FAF0659BF00000000F47D39C231089C3F0000000005000000000000000000000000000000000000000000844E000043281F33A725C7320000803F2CC7073FAF0659BF00000000F47D39C231089C3F00000000050000000000000000000000000000000000FFFFFFFFFBF2
1004
04009AFC38C2034C493F123E33BAC19238C2B222823F990580400100844E18241700FFFF00000100C5040000844E00003B7F2B3340C598320000803F3151D03E3DDA69BF00000000E7FB38C24B0C823F0000000005000000000000000000000000000000000000000000844E00003B7F2B3340C598320000
1004
803F3151D03E3DDA69BF00000000E7FB38C24B0C823F00000000050000000000000000000000000000000000FFFFFFFFFBF20400289438C2E245083F123E33BAEF4438C2A3A5493F990580400100844E28251700FFFF00000100C4040000844E000036DC3333434457320000803FAFC4923EAC4175BF0000
1004
0000759338C2D478493F0000000005000000000000000000000000000000000000000000844E000036DC3333434457320000803FAFC4923EAC4175BF00000000759338C2D578493F00000000050000000000000000000000000000000000FFFFFFFFFBF20400554638C27B7F8E3E123E33BAB51038C27F9F
1004
083F990580400100844E64E61400FFFF00000100C3040000844E0000A210383395D613320000803F6C97493E7AFD7ABF00000000A24538C2AE72083F0000000005000000000000000000000000000000000000000000844E0000A210383395D613320000803F6C97493E7AFD7ABF00000000A14538C2AE72
1004
083F00000000050000000000000000000000000000000000FFFFFFFFFBF2040082F837C27D9F08BF123E33BA7CDC37C296C568BE990580400100844E74E71400FFFF00000100C1040000844E00007C0F3B3319267FB10000803FBAF5ADBD26137FBF000000002FDD37C2C07869BE00000000050000000000
1004
00000000000000000000000000000000844E00007C0F3B3319267FB10000803FBAF5ADBD26137FBF000000002FDD37C2C87869BE00000000050000000000000000000000000000000000FFFFFFFFFBF20400554638C28F4D50BF123E33BA1CF737C2DF4508BF990580400100844E84E81400FFFF00000100
1004
C0040000844E0000F22E3533A4B644B20000803F671E86BE910F77BF00000000CFF737C2B07208BF0000000005000000000000000000000000000000000000000000844E0000F22E3533A4B644B20000803F671E86BE910F77BF00000000CEF737C2B07208BF000000000500000000000000000000000000
1004
00000000FFFFFFFFFBF20400289438C20FDD8BBF123E33BAEF4438C2F1F34FBF990580400100844EF4E91400FFFF00000100BF040000844E000082233533D75E45B20000803F159186BEF9FF76BF00000000A24538C2C42050BF0000000005000000000000000000000000000000000000000000844E0000
1004
82233533D75E45B20000803F159186BEF9FF76BF00000000A14538C2C22050BF00000000050000000000000000000000000000000000FFFFFFFFFBF204009AFC38C2EE2CA9BF123E33BAC19238C240B08BBF990580400100844EACCE1200FFFF00000100BE040000844E00003B7F2B3340C598B20000803F
1004
3151D0BE3DDA69BF00000000759338C2A8C68BBF0000000005000000000000000000000000000000000000000000844E00003B7F2B3340C598B20000803F3151D0BE3DDA69BF00000000759338C2A8C68BBF00000000050000000000000000000000000000000000FFFFFFFFFBF20400A77E39C2CB7CC6BF
1004
123E33BA33FB38C22100A9BF990580400100844EBCCF1200FFFF00000100BD040000844E00001A2E2433A31BB6B20000803F5152F8BE0DE05FBF00000000E7FB38C28816A9BF0000000005000000000000000000000000000000000000000000844E00001A2E2433A31BB6B20000803F5152F8BE0DE05FBF
1004
00000000E7FB38C28816A9BF00000000050000000000000000000000000000000000FFFFFFFFFBF204004D1A3AC2B778E0BF123E33BA417D39C2FE4FC6BF990580400100844ECCD01200FFFF00000100BC040000844E0000AE471633BD0CE1B20000803F3B7019BFCDEB4CBF00000000F47D39C26466C6BF
1004
0000000005000000000000000000000000000000000000000000844E0000AE471633BD0CE1B20000803F3B7019BFCDEB4CBF00000000F47D39C26566C6BF00000000050000000000000000000000000000000000FFFFFFFFFBF2040092D03AC29774FABF123E33BAE6183AC2EC4BE0BF990580400100844E
1004
DCD11200FFFF00000100BB040000844E0000C8280D333B8CF7B20000803F0AC728BFF27B40BF000000009A193AC25062E0BF0000000005000000000000000000000000000000000000000000844E0000C8280D333B8CF7B20000803F0AC728BFF27B40BF000000009A193AC25062E0BF0000000005000000
1004
0000000000000000000000000000FFFFFFFFFBF2040071A03BC20F0507C0123E33BA2BCF3AC2CB47FABF990580400100844ECCD41200FFFF00000100BA040000844E00000BFFE132AAEC15B30000803FB26F4CBF6F151ABF00000000DFCF3AC2345EFABF0000000005000000000000000000000000000000
1004
000000000000844E00000BFFE132AAEC15B30000803FB26F4CBF6F151ABF00000000DFCF3AC2335EFABF00000000050000000000000000000000000000000000FFFFFFFFFBF20400F08A3CC26CBF10C0123E33BA0B9F3BC2ABEE06C0990580400100844EDCD51200FFFF00000100B9040000844E000066A5
1004
CF32196B1CB30000803F954A55BF97920DBF00000000BE9F3BC2DCF906C00000000005000000000000000000000000000000000000000000844E000066A5CF32196B1CB30000803F954A55BF97920DBF00000000BD9F3BC2DDF906C000000000050000000000000000000000000000000000FFFFFFFFFBF2
1004
04006F753DC231E018C0123E33BA89893CC204A910C0990580400100844EECD61200FFFF00000100B8040000844E0000EA1AB6324D2E24B30000803F52E05FBF5651F8BE000000003D8A3CC238B410C00000000005000000000000000000000000000000000000000000844E0000EA1AB6324D2E24B30000
1004
803F52E05FBF5651F8BE000000003D8A3CC238B410C000000000050000000000000000000000000000000000FFFFFFFFFBF20400E95E3EC25B671FC0123E33BA09743DC2C9C918C0990580400100844EFCD71200FFFF00000100B7040000844E0000F2549932295F2BB30000803F82AE69BF2215D1BE0000
1004
0000BC743DC2FCD418C00000000005000000000000000000000000000000000000000000844E0000F2549932295F2BB30000803F82AE69BF2215D1BE00000000BB743DC2FDD418C000000000050000000000000000000000000000000000FFFFFFFFFBF2040007643FC225DE25C0123E33BA815D3EC2F550
1004
1FC0990580400100844EE0D21200FFFF00000100B6040000844E00008E448A32DE8B2EB30000803FB6026EBF948ABCBE00000000355E3EC2265C1FC00000000005000000000000000000000000000000000000000000844E00008E448A32DE8B2EB30000803FB6026EBF948ABCBE00000000355E3EC2275C
1004
1FC000000000050000000000000000000000000000000000FFFFFFFFFBF20400B98140C2B8CB2AC0123E33BAA0623FC2BEC725C0990580400100844E98CC1200FFFF00000100B5040000844E0000FBC8473223F934B30000803F32C676BF873688BE0000000054633FC2F2D225C000000000050000000000
1004
00000000000000000000000000000000844E0000FBC8473223F934B30000803F32C676BF873688BE0000000054633FC2F3D225C000000000050000000000000000000000000000000000FFFFFFFFFBF20400D80648C2E7A82FC0123E33BAF6F042C27E922FC0990580400100844EA0DA1200FFFF00000100
1004
B3040000844E0000EDAD09272EBD3BB30000803F000080BF2EBD3BB300000000AAF142C2B29D2FC00000000005000000000000000000000000000000000000000000844E0000EDAD09272EBD3BB30000803F000080BF2EBD3BB300000000AAF142C2B29D2FC0000000000500000000000000000000000000
1004
00000000FFFFFFFFFBF20400789B40C2A2944EC09A7557BA22FE3FC2B7CF4CC0BB0680400100844EE8D31200FFFF0000010000090000844E00004E3AFDB1220D39330000803FC8557C3F6CA62C3E00000000A09A40C22A874EC00000000005000000000000000000000000000000000000000000844E0000
1004
4E3AFDB1220D39330000803FC8557C3F6CA62C3E00000000A09A40C22B874EC000000000050000000000000000000000000000000000FFFFFFFFFBF20400D2FF3FC2A6EA4CC09A7557BA7D623FC21E364BC0BB0680400100844E98DC1200FFFF00000100FF080000844E000071BFF3B1074039330000803F
1004
2E9B7C3FCB2F263E00000000FAFE3FC22EDD4CC00000000005000000000000000000000000000000000000000000844E000071BFF3B1074039330000803F2E9B7C3FCB2F263E00000000FAFE3FC22FDD4CC000000000050000000000000000000000000000000000FFFFFFFFFBF2040080C73EC211A749C0
1004
9A7557BAC4433EC2EE5846C0BB0680400100844EA8DD1200FFFF0000010065090000844E0000218D89B216B02E330000803F19346E3F7590BB3E00000000A8C63EC2999949C00000000005000000000000000000000000000000000000000000844E0000218D89B216B02E330000803F19346E3F7590BB3E
1004
00000000A8C63EC29A9949C000000000050000000000000000000000000000000000FFFFFFFFFBF2040074453EC2DD7346C09A7557BA1FA83DC2591543C0BB0680400100844EB8DE1200FFFF0000010064090000844E000059E06EB2CEFC31330000803FF4B3723F87DDA23E000000009C443EC2656646C0
1004
0000000005000000000000000000000000000000000000000000844E000059E06EB2CEFC31330000803FF4B3723F87DDA23E000000009C443EC2666646C000000000050000000000000000000000000000000000FFFFFFFFFBF20400CDA93DC2473043C09A7557BA730B3DC2C3D13FC0BB0680400100844E
1004
C8DF1200FFFF0000010063090000844E000063796DB2D11A32330000803FE1DC723FCAE8A13E00000000F6A83DC2D02243C00000000005000000000000000000000000000000000000000000844E000063796DB2D11A32330000803FE1DC723FCAE8A13E00000000F6A83DC2D12243C00000000005000000
1004
0000000000000000000000000000FFFFFFFFFBF20400158B3CC21CA93CC09A7557BA5A073CC200B137C0BB0680400100844EE4EA1400FFFF00000100C8090000844E00004ACFC0B2AA1821330000803F93AB5B3F0C75033F000000003D8A3CC2A59B3CC00000000005000000000000000000000000000000
1004
000000000000844E00004ACFC0B2AA1821330000803F93AB5B3F0C75033F000000003D8A3CC2A59B3CC000000000050000000000000000000000000000000000FFFFFFFFFBF2040008093CC2EECB37C09A7557BAB46B3BC2D0D332C0BB0680400100844EF4EB1400FFFF00000100C7090000844E000019EB
1004
A7B242EB27330000803F39F9643F02F9E43E0000000031083CC276BE37C00000000005000000000000000000000000000000000000000000844E000019EBA7B242EB27330000803F39F9643F02F9E43E0000000031083CC276BE37C000000000050000000000000000000000000000000000FFFFFFFFFBF2
1004
0400636D3BC2BFEE32C09A7557BAA1E83AC23EE62DC0BB0680400100844EA0ED1400FFFF000001002C0A0000844E0000AB8DC1B28CDF20330000803FB15D5B3FD9F6033F000000008B6C3BC247E132C00000000005000000000000000000000000000000000000000000844E0000AB8DC1B28CDF20330000
1004
803FB15D5B3FD9F6033F000000008B6C3BC247E132C000000000050000000000000000000000000000000000FFFFFFFFFBF2040051EA3AC22D012EC09A7557BA96663AC20F0929C0BB0680400100844EB0EE1400FFFF000001002B0A0000844E000047CFC0B2AA1821330000803F94AB5B3F0A75033F0000
1004
000079E93AC2B5F32DC00000000005000000000000000000000000000000000000000000844E000047CFC0B2AA1821330000803F94AB5B3F0A75033F0000000079E93AC2B5F32DC000000000050000000000000000000000000000000000FFFFFFFFFBF2040044683AC2FE2329C09A7557BA29FF39C2E481
1004
22C0BB0680400100844EC0EF1400FFFF00000100900A0000844E0000186705B3DC1804330000803F8320343F45E8353F000000006D673AC2861629C00000000005000000000000000000000000000000000000000000844E0000186705B3DC1804330000803F8320343F45E8353F000000006D673AC28616
1004
29C000000000050000000000000000000000000000000000FFFFFFFFFBF20400D7003AC2D39C22C09A7557BA1D7D39C21B0B1CC0BB0680400100844ED0F01400FFFF000001008F0A0000844E0000A1B6E9B2D6EF12330000803FC75C483F62581F3F0000000000003AC25C8F22C000000000050000000000
1004
00000000000000000000000000000000844E0000A1B6E9B2D6EF12330000803FC75C483F62581F3F0000000001003AC25C8F22C000000000050000000000000000000000000000000000FFFFFFFFFBF20400659839C2396500409A7557BAA91439C252070740BB0680400100844EE0F11400FFFF00000100
1004
F40A0000844E0000681FEBB2AA5F12B30000803F309847BF5C4E203F00000000811539C2B07200400000000005000000000000000000000000000000000000000000844E0000681FEBB2AA5F12B30000803F309847BF5C4E203F00000000811539C2B0720040000000000500000000000000000000000000
1004
00000000FFFFFFFFFBF20400D7003AC263EC06409A7557BAB69639C21A7E0D40BB0680400100844EF0F21400FFFF00000100F30A0000844E0000581804B39A6705B30000803FF7E835BFCF1F343F000000008D9739C2DCF906400000000005000000000000000000000000000000000000000000844E0000
1004
581804B39A6705B30000803FF7E835BFCF1F343F000000008D9739C2DBF9064000000000050000000000000000000000000000000000FFFFFFFFFBF20400413D3CC2B34E1F409A7557BAE79E3BC2CD462440BB0680400100844E00F41400FFFF00000100580B0000844E0000CD09A7B2662328B30000803F
1004
C74565BFCBC5E33E00000000BE9F3BC22A5C1F400000000005000000000000000000000000000000000000000000844E0000CD09A7B2662328B30000803FC74565BFCBC5E33E00000000BE9F3BC22A5C1F4000000000050000000000000000000000000000000000FFFFFFFFFBF20400E8D83CC2E02B2440
1004
9A7557BA933B3CC2FE232940BB0680400100844E10F51400FFFF00000100570B0000844E000050EBA7B234EB27B30000803F26F964BF4DF9E43E000000006A3C3CC2543924400000000005000000000000000000000000000000000000000000844E000050EBA7B234EB27B30000803F26F964BF4DF9E43E
1004
000000006A3C3CC25439244000000000050000000000000000000000000000000000FFFFFFFFFBF2040074453EC20F0929409A7557BA38D73CC22AAB2F40BB0680400100844E20F61400FFFF00000100BC0B0000844E000099D64EB22E7A34B30000803F141976BF98058D3E0000000010D83CC288162940
1004
0000000005000000000000000000000000000000000000000000844E000099D64EB22E7A34B30000803F141976BF98058D3E0000000010D83CC28816294000000000050000000000000000000000000000000000FFFFFFFFFBF2040019E13EC23D902F409A7557BAC4433EC257883440BB0680400100844E
1004
30F71400FFFF00000100BB0B0000844E0000F0EAA7B24DEB27B30000803F48F964BFC9F8E43E000000009C443EC2B49D2F400000000005000000000000000000000000000000000000000000844E0000F0EAA7B24DEB27B30000803F48F964BFC9F8E43E000000009C443EC2B49D2F400000000005000000
1004
0000000000000000000000000000FFFFFFFFFBF20400FFB13FC26A6D34409A7557BA6BDF3EC2F4213640BB0680400100844E40F81400FFFF00000100200C0000844E0000D9B1B6B148583AB30000803F56197EBF251FF93D0000000042E03EC2DE7A34400000000005000000000000000000000000000000
1004
000000000000844E0000D9B1B6B148583AB30000803F56197EBF251FF93D0000000042E03EC2DE7A344000000000050000000000000000000000000000000000FFFFFFFFFBF20400456840C2050736409A7557BA50B03FC285653940BB0680400100844E50F91400FFFF000001001F0C0000844E0000EAD5
1004
4EB23B7A34B30000803F251976BF21058D3E0000000027B13FC27C1436400000000005000000000000000000000000000000000000000000844E0000EAD54EB23B7A34B30000803F251976BF21058D3E0000000027B13FC27B14364000000000050000000000000000000000000000000000FFFFFFFFFBF2
1004
0400030842C293F43A409A7557BA753641C27E0F3B40BB0680400100844E60FA1400FFFF00000100840C0000844E0000EDAD09272EBD3BB30000803F000080BF2EBD3BB3000000004C3741C20C023B400000000005000000000000000000000000000000000000000000844E0000EDAD09272EBD3BB30000
1004
803F000080BF2EBD3BB3000000004C3741C20C023B4000000000050000000000000000000000000000000000FFFFFFFFFBF20400E1D742C293F43A409A7557BA540642C21EA93C40BB0680400100844E70FB1400FFFF00000100830C0000844E00007E95B7B1C9543AB30000803F92147EBF8F55FA3D0000
1004
00002B0742C20C023B400000000005000000000000000000000000000000000000000000844E00007E95B7B1C9543AB30000803F92147EBF8F55FA3D000000002B0742C20C023B4000000000050000000000000000000000000000000000FFFFFFFFFBF20400075E4AC23C2E50C09A7557BA575C4AC21EA9
1004
3C40BB0680400100844E80FC14000100000001000A0D0000844E00002EBD3BB3000000000000803F000000000000803F000000002F5D4AC2C42050C00000000005000000000000000000000000000000000000000000844E00002EBD3BB3000000000000803F000000000000803F000000002F5D4AC2C420
1004
50C00000000005000000000000000000000000000000000001000000FBF20400075E4AC2318E3C409A7557BA33D642C21EA93C40BB0680400100844E90FD1400010000000100090D0000844E0000EDAD09272EBD3B330000803F0000803F2EBD3BB3000000002F5D4AC2A89B3C4000000000050000000000
1004
00000000000000000000000000000000844E0000EDAD09272EBD3B330000803F0000803F2EBD3BB3000000002F5D4AC2A79B3C400000000005000000000000000000000000000000000001000000FBF20400233841C2964A39409A7557BA966640C27E0F3B40BB0680400100844EA0FE1400010000000100
1004
070D0000844E0000DCCDBE31C3373A330000803FFEEC7D3FFE1602BE000000004C3741C20C023B400000000005000000000000000000000000000000000000000000844E0000DCCDBE31C3373A330000803FFEEC7D3FFE1602BE000000004C3741C20C023B40000000000500000000000000000000000000
1004
0000000001000000FBF2040095A03BC21E611A409A7557BADA1C3BC29E691F40BB0680400100844ECCC61200010000000100030D0000844E00000FABC2325E8920330000803F2EE85A3F6DB904BF00000000BE9F3BC22A5C1F400000000005000000000000000000000000000000000000000000844E0000
1004
0FABC2325E8920330000803F2EE85A3F6DB904BF00000000BE9F3BC22A5C1F400000000005000000000000000000000000000000000001000000FBF204008A1E3BC259EA13409A7557BA35813AC2107C1A40BB0680400100844EDCC71200010000000100020D0000844E000051CDCF32D85D1C330000803F
1004
8238553FCEAD0DBF00000000B21D3BC2986E1A400000000005000000000000000000000000000000000000000000844E000051CDCF32D85D1C330000803F8238553FCEAD0DBF00000000B21D3BC2976E1A400000000005000000000000000000000000000000000001000000FBF20400E3823AC228630D40
1004
9A7557BA29FF39C248051440BB0680400100844EECC81200010000000100010D0000844E00006F1FEB32A75F12330000803F2C98473F614E20BF000000000C823AC2D0F713400000000005000000000000000000000000000000000000000000844E00006F1FEB32A75F12330000803F2C98473F614E20BF
1004
000000000C823AC2CFF713400000000005000000000000000000000000000000000001000000FBF20400591639C28C7AE33F9A7557BACB4438C226800040BB0680400100844EFCC91200010000000100FF0C0000844E0000B67C0C339412F9320000803F2DD1293F50913FBF00000000811539C2B0720040
1004
0000000005000000000000000000000000000000000000000000844E0000B67C0C339412F9320000803F2DD1293F50913FBF00000000811539C2B07200400000000005000000000000000000000000000000000001000000FBF20400794638C27C4BC63F9A7557BA848E37C26FB0E33FBB0680400100844E
1004
0CCB1200010000000100FE0C0000844E000056FB1333AB0FE7320000803F78891D3F8AC949BF00000000A24538C28495E33F0000000005000000000000000000000000000000000000000000844E000056FB1333AB0FE7320000803F78891D3F8AC949BF00000000A34538C28295E33F0000000005000000
1004
000000000000000000000000000001000000FBF20400349037C2A0A7A53F9A7557BAD9F136C25181C63FBB0680400100844E54BD1200010000000100FD0C0000844E000021FC2033872EC1320000803FFBB5033FAA845BBF000000005C8F37C26066C63F0000000005000000000000000000000000000000
1004
000000000000844E000021FC2033872EC1320000803FFBB5033FAA845BBF000000005C8F37C26066C63F0000000005000000000000000000000000000000000001000000FBF2040087F336C25EF1813F9A7557BACD6F36C27FDDA53FBB0680400100844E64BE1200010000000100FC0C0000844E000099DE
1004
2A33B88E9B320000803F131ED43E33FF68BF00000000B0F236C290C2A53F0000000005000000000000000000000000000000000000000000844E000099DE2A33B88E9B320000803F131ED43E33FF68BF00000000B1F236C28DC2A53F0000000005000000000000000000000000000000000001000000FBF2
1005
522
  0
INSERT
  8
AME_FRZ
  5
522
  2
AME_NIL
 10
1.0
 20
1.0
 30
1.0
1001
AME_SOL
1004
04007C7136C242CE353F9A7557BA5F0836C23A27823FBB0680400100844E74BF1200010000000100FB0C0000844E000097383233EB126C320000803F63F4A03E7A0573BF00000000A47036C24C0C823F0000000005000000000000000000000000000000000000000000844E000097383233EB126C320000
1004
803F63F4A03E7A0573BF00000000A47036C24B0C823F0000000005000000000000000000000000000000000001000000FBF204000F0A36C27E73CF3E9A7557BA8CBA35C2F539363FBB0680400100844E84C01200010000000100FA0C0000844E00002A2B3633679235320000803F3097773E7E6778BF0000
1004
0000370936C21404363F0000000005000000000000000000000000000000000000000000844E00002A2B3633679235320000803F3097773E7E6778BF00000000370936C21204363F0000000005000000000000000000000000000000000001000000FBF204003CBC35C24C2ACD3D9A7557BAEE9F35C2EE4A
1004
D03EBB0680400100844E94C11200010000000100F90C0000844E00008A0F3B33B01B7F310000803FA1EEAD3D3A137FBF0000000064BB35C248DFCF3E0000000005000000000000000000000000000000000000000000844E00008A0F3B33B01B7F310000803FA1EEAD3D3A137FBF0000000064BB35C243DF
1004
CF3E0000000005000000000000000000000000000000000001000000FBF204009DA135C253506ABE9A7557BA548635C2E887D03DBB0680400100844EA4C21200010000000100F80C0000844E000001333B33859C63310000803F572F9B3D96437FBF00000000C5A035C200D9CE3D00000000050000000000
1004
00000000000000000000000000000000844E000001333B33859C63310000803F572F9B3D96437FBF00000000C5A035C2F6D8CE3D0000000005000000000000000000000000000000000001000000FBF204009DA135C27A500FBF9A7557BA548635C24FA168BEBB0680400100844E74C41200010000000100
1004
F70C0000844E0000AA343B336D3E62B10000803FA6409ABDD9457FBF000000002B8735C2C07869BE0000000005000000000000000000000000000000000000000000844E0000AA343B336D3E62B10000803FA6409ABDD9457FBF000000002B8735C2C87869BE000000000500000000000000000000000000
1004
0000000001000000FBF20400D6D535C265CB63BF9A7557BAEE9F35C2BDE40EBFBB0680400100844E84C51200010000000100F60C0000844E0000578939332162E5B10000803F9C641CBE27FF7CBF00000000C5A035C2A41A0FBF0000000005000000000000000000000000000000000000000000844E0000
1004
578939332162E5B10000803F9C641CBE27FF7CBF00000000C5A035C2A51A0FBF0000000005000000000000000000000000000000000001000000FBF20400A92336C2EDEF98BF9A7557BA26D435C2A45F63BFBB0680400100844EE02A1200010000000100F50C0000844E00002A2B3633679235B20000803F
1004
309777BE7E6778BF00000000FED435C27C9563BF0000000005000000000000000000000000000000000000000000844E00002A2B3633679235B20000803F309777BE7E6778BF00000000FED435C27E9563BF0000000005000000000000000000000000000000000001000000FBF20400B4A536C232A6BCBF
1004
9A7557BAFA2136C20FBA98BFBB0680400100844E5C2C1200010000000100F40C0000844E00009ADE2A33B38E9BB20000803F0C1ED4BE35FF68BF00000000D12236C2FCD498BF0000000005000000000000000000000000000000000000000000844E00009ADE2A33B38E9BB20000803F0C1ED4BE35FF68BF
1004
00000000D12236C2FDD498BF0000000005000000000000000000000000000000000001000000FBF20400614237C23C7DE0BF9A7557BA06A436C25470BCBFBB0680400100844EDC2D1200010000000100F30C0000844E00006BBF2433B10BB4B20000803F6A82F5BE34A660BF00000000DDA436C2428BBCBF
1004
0000000005000000000000000000000000000000000000000000844E00006BBF2433B10BB4B20000803F6A82F5BE34A660BF00000000DEA436C2438BBCBF0000000005000000000000000000000000000000000001000000FBF2040007DE37C2278000C09A7557BAB14037C25E47E0BFBB0680400100844E
1004
5C2F1200010000000100F20C0000844E0000B61821331FCFC0B20000803FEF7403BFA4AB5BBF00000000894137C24C62E0BF0000000005000000000000000000000000000000000000000000844E0000B61821331FCFC0B20000803FEF7403BFA4AB5BBF00000000894137C24D62E0BF0000000005000000
1004
000000000000000000000000000001000000FBF20400E5AD38C217280FC09A7557BA58DC37C2386500C0BB0680400100844EDC301200010000000100F10C0000844E0000BA7C0C338B12F9B20000803F27D129BF55913FBF000000002FDD37C2AF7200C00000000005000000000000000000000000000000
1004
000000000000844E0000BA7C0C338B12F9B20000803F27D129BF55913FBF000000002FDD37C2B07200C00000000005000000000000000000000000000000000001000000FBF20400CC7E39C20A261CC09A7557BA37AC38C2280D0FC0BB0680400100844EEC311200010000000100F00C0000844E0000916C
1004
0433FF1305B30000803FF67635BFA89234BF000000000EAD38C29F1A0FC00000000005000000000000000000000000000000000000000000844E0000916C0433FF1305B30000803FF67635BFA89234BF000000000EAD38C29F1A0FC00000000005000000000000000000000000000000000001000000FBF2
1004
0400220D3DC2B1EC3FC09A7557BA65893CC22E8E3CC0BB0680400100844EFC321200010000000100EC0C0000844E00004BEB8B3292372EB30000803FC48F6DBF05CBBEBE000000003D8A3CC2A59B3CC00000000005000000000000000000000000000000000000000000844E00004BEB8B3292372EB30000
1004
803FC48F6DBF05CBBEBE000000003D8A3CC2A59B3CC00000000005000000000000000000000000000000000001000000FBF204002B643FC20D514BC09A7557BAD1C53EC2228C49C0BB0680400100844E8C341200010000000100EA0C0000844E0000C49EFB31E71539B30000803FBE617CBFD68D2BBE0000
1004
0000A8C63EC2999949C00000000005000000000000000000000000000000000000000000844E0000C49EFB31E71539B30000803FBE617CBFD68D2BBE00000000A8C63EC29A9949C00000000005000000000000000000000000000000000001000000FBF20400233841C23C2E50C09A7557BAC99940C2B379
1004
4EC0BB0680400100844E0C361200010000000100E80C0000844E00001333F231264839B30000803F41A67CBF8D2125BE00000000A09A40C22A874EC00000000005000000000000000000000000000000000000000000844E00001333F231264839B30000803F41A67CBF8D2125BE00000000A09A40C22B87
1004
4EC00000000005000000000000000000000000000000000001000000FBF20400075E4AC23C2E50C09A7557BA753641C24D1350C0BB0680400100844E1C371200010000000100E70C0000844E0000EDAD09272EBD3BB30000803F000080BF2EBD3BB3000000004C3741C2C42050C000000000050000000000
1004
00000000000000000000000000000000844E0000EDAD09272EBD3BB30000803F000080BF2EBD3BB3000000004C3741C2C42050C00000000005000000000000000000000000000000000001000000FBF257005DF242C2E7A82FC0CBF47F40538040C24FB52AC0990580400100844EA4381200010000000600
1004
BE020000844E00000000803F0000000000000000000000000000803F00000000250648C2986E1A40FFFF7F400500000000000000000000000000000000000000000022030000844E00000000803F0000000000000000000000000000803F00000000250648C2986E1A40FFFF7F4005000000000000000000
1004
00000000000000000000000086030000844E00000000803F0000000000000000000000000000803F00000000250648C2986E1A40FFFF7F4005000000000000000000000000000000000000000000EA030000844E00000000803F0000000000000000000000000000803F00000000250648C2986E1A40FFFF
1004
7F40050000000000000000000000000000000000000000004E040000844E00000000803F0000000000000000000000000000803F00000000250648C2986E1A40FFFF7F4005000000000000000000000000000000000000000000E60C0000844E00000000803F0000000000000000000000000000803F0000
1004
00002F5D4AC2C42050C00000804005000000000000000000000000000000000000000000844E00000000803F0000000000000000000000000000803F000000002F5D4AC2C42050C00000804005000000000000000000000000000000000001000000FBF257005DF242C2E7A82FC0123E33BA538040C24FB5
1004
2AC0123E333A0100844EC4481200FFFF00000600BD020000844E00000000803F0000000000000000000000000000803F00000000250648C2986E1A4000000000050000000000000000000000803F000000000000000021030000844E00000000803F0000000000000000000000000000803F000000002506
1004
48C2986E1A4000000000050000000000000000000000803F000000000000000085030000844E00000000803F0000000000000000000000000000803F00000000250648C2986E1A4000000000050000000000000000000000803F0000000000000000E9030000844E00000000803F00000000000000000000
1004
00000000803F00000000250648C2986E1A4000000000050000000000000000000000803F00000000000000004D040000844E00000000803F0000000000000000000000000000803F00000000250648C2986E1A4000000000050000000000000000000000803F0000000000000000E50C0000844E00000000
1004
803F0000000000000000000000000000803F000000002F5D4AC2C42050C000000000050000000000000000000000803F0000000000000000844E00000000803F0000000000000000000000000000803F000000002F5D4AC2C42050C000000000050000000000000000000000803F00000000FFFFFFFFA4EE
1004
0ABA41C251652CC0123E33BAA4B841C2E84E2CC099058040FFFFFFBFFFFFFF3F02009675244912000000FFFF0100AC6C1200BC6D120000000200AC6C1200BC6D12000100000001000000967500000000803F0000000000000000000000000000803F0000000058B941C21C5A2CC0FFFFFF3F0200FFFFFFBF
1004
FFFFFF3FA4EE5DF242C2E7A82FC089F27F40A4B841C2E84E2CC099058040F609A2BFEFE974BF02009675484A12000000FFFF0100AC6C1200A438120000000200AC6C1200A438120001000000010000009675000000000000000000000000803FAFE128BE937E7C3F00000000E6B746C2C6B639C000008040
1004
0200F609A2BFEFE974BFA4EE5DF242C2E7A82FC0123E33BAF6F042C27E922FC099058040FFFFFFBFFFFFFF3F020096756C4B120000000100FFFFAC6C1200A0DA120000000200A0DA1200AC6C1200FFFFFFFF01000000967500000000803F0000000000000000000000000000803F00000000AAF142C2B29D
1004
2FC0FFFFFF3F0200FFFFFFBFFFFFFF3FA4EE5DF242C2E7A82FC0123E33BAA4B841C2E84E2CC09A75573AE909A2BFF5E974BF02009675904C120000000100FFFFAC6C1200C448120000000200C4481200AC6C1200FFFFFFFF010000009675000000000000000000000000803FAFE128BE937E7C3F00000000
1004
E6B746C2C6B639C0000000000200E909A2BFF5E974BFA4EE0ABA41C251652CC089F27F40538040C24FB52AC099058040B0DFB3BFA8B38CBF02009675B44D12000000FFFF0100BC6D1200A438120000000200BC6D1200A438120001000000010000009675000000000000000000000000803F124EA7BDF424
1004
7F3F00000000301B46C2591932C0000080400200B0DFB3BFA8B38CBFA4EEB98140C2B8CB2AC0123E33BA538040C24FB52AC099058040FFFFFFBFFFFFFF3F02009675D84E12000000FFFF0100BC6D120098CC120000000200BC6D120098CC120001000000FFFFFFFF967500000000803F0000000000000000
1004
000000000000803F00000000058140C284C02AC0FFFFFF3F0200FFFFFFBFFFFFFF3FA4EE0ABA41C251652CC0123E33BA538040C24FB52AC09A75573A60DFB3BF73B38CBF02009675FC4F120000000100FFFFBC6D1200C448120000000200C4481200BC6D1200FFFFFFFF0100000096750000000000000000
1004
00000000803F124EA7BDF4247F3F00000000301B46C25B1932C000000000020060DFB3BF73B38CBFA4EE82F837C20C2C6ABE89F27F407CDC37C22167D23C990580406BADC2BF0F6CA2BF02009675205112000000FFFF0100CC6E1200A438120000000200CC6E1200A4381200010000000100000096750000
1004
00000000000000000000803FA0A87EBF405FD1BD000000007A5837C25198BEBF0000804002006BADC2BF0F6CA2BFA4EE82F837C2DB32C73C123E33BA1CF737C22167D23C99058040FFFFFFBFFFFFFF3F02009675445212000000FFFF0100CC6E1200DC6F120000000200CC6E1200DC6F1200010000000100
1004
0000967500000000803F0000000000000000000000000000803F00000000CEF737C2FECCCC3CFFFFFF3F0200FFFFFFBFFFFFFF3FA4EEE2DD37C20C2C6ABE123E33BA7CDC37C296C568BE99058040FFFFFFBFFFFFFF3F020096756853120000000100FFFFCC6E120074E714000000020074E71400CC6E1200
1004
FFFFFFFF01000000967500000000803F0000000000000000000000000000803F000000002FDD37C2C87869BEFFFFFF3F0200FFFFFFBFFFFFFF3FA4EE82F837C20C2C6ABE123E33BA7CDC37C22167D23C9A75573A6BADC2BF0F6CA2BF020096758C54120000000100FFFFCC6E1200C448120000000200C448
1004
1200CC6E1200FFFFFFFF010000009675000000000000000000000000803FA0A87EBF405FD1BD000000007A5837C25198BEBF0000000002006BADC2BF0F6CA2BFA4EE1B1238C2DB32C73C89F27F401CF737C2BA328F3E990580408D6FD4BFACCDB3BF02009675B05512000000FFFF0100DC6F1200A4381200
1004
00000200DC6F1200A438120001000000010000009675000000000000000000000000803FE7C47EBF8196C8BD00000000DA6A37C292D3AFBF0000804002008D6FD4BFACCDB3BFA4EE1B1238C27B7F8E3E123E33BAB51038C2BA328F3E99058040FFFFFFBFFFFFFF3F02009675D45612000000FFFF0100DC6F
1004
120064E6140000000200DC6F120064E6140001000000FFFFFFFF967500000000803F0000000000000000000000000000803F00000000681138C218D98E3EFFFFFF3F0200FFFFFFBFFFFFFF3FA4EE1B1238C2DB32C73C123E33BA1CF737C2BA328F3E9A75573AF42DD4BFACCDB3BF02009675F85712000000
1004
0100FFFFDC6F1200C448120000000200C4481200DC6F1200FFFFFFFF010000009675000000000000000000000000803FE7C47EBF8196C8BD00000000DA6A37C292D3AFBF000000000200F42DD4BFACCDB3BFA4EE6F753DC21601024089F27F40FDF13CC2135B054099058040549FDE3E9558123F02009675
1004
1C5912000000FFFF0100C0A11400A438120000000200C0A11400A438120001000000010000009675000000000000000000000000803F54CCBEBE808F6DBF00000000E7113FC292AE0F40000080400200549FDE3E9558123FA4EE6F753DC2AB440540123E33BA09743DC2135B054099058040FFFFFFBFFFFF
1004
FF3F02009675405A12000000FFFF0100C0A11400D0A2140000000200C0A11400D0A214000100000001000000967500000000803F0000000000000000000000000000803F00000000BB743DC2DF4F0540FFFFFF3F0200FFFFFFBFFFFFFF3FA4EE63F33CC216010240123E33BAFDF13CC27E17024099058040
1004
FFFFFFBFFFFFFF3F02009675645B120000000100FFFFC0A11400C87F170000000200C87F1700C0A11400FFFFFFFF01000000967500000000803F0000000000000000000000000000803F00000000B0F23CC24A0C0240FFFFFF3F0200FFFFFFBFFFFFFF3FA4EE6F753DC216010240123E33BAFDF13CC2135B
1004
05409A75573A549FDE3E9558123F02009675885C120000000100FFFFC0A11400C448120000000200C4481200C0A11400FFFFFFFF010000009675000000000000000000000000803F54CCBEBE808F6DBF00000000E7113FC292AE0F40000000000200549FDE3E9558123FA4EE7CF73DC2AB44054089F27F40
1004
09743DC242380A40990580408D6A08BE137C723C02009675AC5D12000000FFFF0100D0A21400A438120000000200D0A21400A438120001000000010000009675000000000000000000000000803F4A7403BF07AC5BBF00000000BB813DC252CC05400000804002008D6A08BE137C723CA4EE7CF73DC2DA21
1004
0A40123E33BA15F63DC242380A4099058040FFFFFFBFFFFFFF3F02009675D05E12000000FFFF0100D0A21400B87E170000000200D0A21400B87E170001000000FFFFFFFF967500000000803F0000000000000000000000000000803F00000000C9F63DC20E2D0A40FFFFFF3F0200FFFFFFBFFFFFFF3FA4EE
1004
7CF73DC2AB440540123E33BA09743DC242380A409A75573A8D6A08BE137C723C02009675F45F120000000100FFFFD0A21400C448120000000200C4481200D0A21400FFFFFFFF010000009675000000000000000000000000803F4A7403BF07AC5BBF00000000BB813DC253CC05400000000002008D6A08BE
1004
137C723CA4EEDAB13FC205A9104089F27F40C8133FC20659124099058040D9E04A3FDD90723F02009675186112000000FFFF0100E0A31400A438120000000200E0A31400A438120001000000010000009675000000000000000000000000803F972125BE40A67CBF000000000BD242C2AC7B1A4000008040
1004
0200D9E04A3FDD90723FA4EEDAB13FC29F421240123E33BA73B03FC20659124099058040FFFFFFBFFFFFFF3F020096753C6212000000FFFF0100E0A31400A076170000000200E0A31400A07617000100000001000000967500000000803F0000000000000000000000000000803F0000000027B13FC2D34D
1004
1240FFFFFF3F0200FFFFFFBFFFFFFF3FA4EE2E153FC205A91040123E33BAC8133FC26DBF104099058040FFFFFFBFFFFFFF3F020096756063120000000100FFFFE0A31400A87D170000000200A87D1700E0A31400FFFFFFFF01000000967500000000803F0000000000000000000000000000803F00000000
1004
7A143FC239B41040FFFFFF3F0200FFFFFFBFFFFFFF3FA4EEDAB13FC205A91040123E33BAC8133FC2065912409A75573AD9E04A3F3890723F020096753047120000000100FFFFE0A31400C448120000000200C4481200E0A31400FFFFFFFF010000009675000000000000000000000000803F972125BE40A6
1004
7CBF000000000BD242C2AD7B1A40000000000200D9E04A3F3890723FA4EE804D40C29F42124089F27F4073B03FC29C9C154099058040B8EF643E008EC43E02009675040015000000FFFF0100A0761700A438120000000200A0761700A438120001000000010000009675000000000000000000000000803F
1004
96DDA2BEF2B372BF00000000D82541C2971E1A40000080400200B8EF643E008EC43EA4EE804D40C234861540123E33BA1A4C40C29C9C154099058040FFFFFFBFFFFFFF3F02009675280115000000FFFF0100A076170018A4130000000200A076170018A4130001000000FFFFFFFF967500000000803F0000
1004
000000000000000000000000803F00000000CD4C40C268911540FFFFFF3F0200FFFFFFBFFFFFFF3FA4EE804D40C29F421240123E33BA73B03FC29C9C15409A75573A9DF2643E708EC43E02009675E0BB120000000100FFFFA0761700C448120000000200C4481200A0761700FFFFFFFF0100000096750000
1004
00000000000000000000803F96DDA2BEF2B372BF00000000D82541C2981E1A400000000002009DF2643E708EC43EA4EEB15542C2CAC9184089F27F400A9F41C232E0184099058040485E6A3F3BD78B3F0200967530C218000000FFFF0100B0771700A438120000000200B0771700A4381200010000000100
1004
00009675000000000000000000000000803F2EBD3B33000080BF0000000077FE45C2FDD41840000080400200485E6A3F3BD78B3FA4EEB15542C2CAC91840123E33BA4B5442C232E0184099058040FFFFFFBFFFFFFF3F0200967510C318000000FFFF0100B0771700C078170000000200B0771700C0781700
1004
0100000001000000967500000000803F0000000000000000000000000000803F00000000FD5442C2FED41840FFFFFF3F0200FFFFFFBFFFFFFF3FA4EE71A041C2CAC91840123E33BA0A9F41C232E0184099058040FFFFFFBFFFFFFF3F0200967534C4180000000100FFFFB0771700F07B170000000200F07B
1004
1700B0771700FFFFFFFF01000000967500000000803F0000000000000000000000000000803F00000000BE9F41C2FED41840FFFFFF3F0200FFFFFFBFFFFFFF3FA4EEB15542C2CAC91840123E33BA0A9F41C232E018409A75573A485E6A3F09D78B3F02009675D858170000000100FFFFB0771700C4481200
1004
00000200C4481200B0771700FFFFFFFF010000009675000000000000000000000000803F2EBD3B33000080BF0000000077FE45C2FED41840000000000200485E6A3F09D78B3FA4EEF70B43C2CAC9184089F27F404B5442C2CC791A40990580408D34D83E731E1A3F02009675FC5917000000FFFF0100C078
1004
1700A438120000000200C0781700A438120001000000010000009675000000000000000000000000803F006C0EBE08837DBF0000000079B744C2DB301E400000804002008D34D83E731E1A3FA4EEF70B43C264631A40123E33BA900A43C2CC791A4099058040FFFFFFBFFFFFFF3F02009675205B17000000
1004
FFFF0100C0781700E07A170000000200C0781700E07A170001000000FFFFFFFF967500000000803F0000000000000000000000000000803F00000000440B43C2986E1A40FFFFFF3F0200FFFFFFBFFFFFFF3FA4EEF70B43C2CAC91840123E33BA4B5442C2CC791A409A75573A4135D83E731E1A3F02009675
1004
445C170000000100FFFFC0781700C448120000000200C4481200C0781700FFFFFFFF010000009675000000000000000000000000803F006C0EBE08837DBF0000000079B744C2DD301E400000000002004135D83E731E1A3FA4EED80648C2E7A82FC089F27F40710548C2CC791A4099058040EA26ADC03B0C
1004
82BE02009675C039120000000100FFFFD0791700A438120000000200A4381200D079170001000000FFFFFFFF9675000000000000000000000000803F000080BF0000000000000000250648C23BDF3FC0000080400200EA26ADC03B0C82BEA4EED80648C264631A40123E33BA710548C2CC791A4099058040
1004
FFFFFFBFFFFFFF3F02009675403B120000000100FFFFD0791700E07A170000000200E07A1700D0791700FFFFFFFFFFFFFFFF967500000000803F0000000000000000000000000000803F00000000250648C2986E1A40FFFFFF3F0200FFFFFFBFFFFFFF3FA4EED80648C2E7A82FC0123E33BA710548C27E92
1004
2FC099058040FFFFFFBFFFFFFF3F02009675643C12000000FFFF0100D0791700A0DA120000000200D0791700A0DA1200FFFFFFFFFFFFFFFF967500000000803F0000000000000000000000000000803F00000000250648C2B29D2FC0FFFFFF3F0200FFFFFFBFFFFFFF3FA4EED80648C2E7A82FC0123E33BA
1004
710548C2CC791A409A75573AEA26ADC0440C82BE020096752C3A12000000FFFF0100D0791700C448120000000200D0791700C4481200FFFFFFFFFFFFFFFF9675000000000000000000000000803F000080BF0000000000000000250648C23BDF3FC0000000000200EA26ADC0440C82BEA4EED80648C26463
1004
1A4089F27F40900A43C2CC791A4099058040ABCCC4BF51C295BE02009675E4EF110000000100FFFFE07A1700A438120000000200A4381200E07A170001000000FFFFFFFF9675000000000000000000000000803F2EBD3B330000803F00000080A93149C2996E1A40000080400200ABCCC4BF51C295BEA4EE
1004
D80648C264631A40123E33BA900A43C2CC791A409A75573ABBCCC4BF51C295BE0200967508F111000000FFFF0100E07A1700C448120000000200E07A1700C4481200FFFFFFFFFFFFFFFF9675000000000000000000000000803F2EBD3B330000803F00000080A93149C2986E1A40000000000200BBCCC4BF
1004
51C295BEA4EE71A041C23030174089F27F40C5E840C232E0184099058040C1915EBFA58D30BF020096752CF2110000000100FFFFF07B1700A438120000000200A4381200F07B170001000000FFFFFFFF9675000000000000000000000000803FBC6C0E3E01837D3F00000080165B44C296F81E4000008040
1004
0200C1915EBFA58D30BFA4EE2CEA40C230301740123E33BAC5E840C29846174099058040FFFFFFBFFFFFFF3F0200967550F3110000000100FFFFF07B170018A413000000020018A41300F07B1700FFFFFFFFFFFFFFFF967500000000803F0000000000000000000000000000803F0000000079E940C2643B
1004
1740FFFFFF3F0200FFFFFFBFFFFFFF3FA4EE71A041C230301740123E33BAC5E840C232E018409A75573AC1915EBF948D30BF0200967574F411000000FFFF0100F07B1700C448120000000200F07B1700C4481200FFFFFFFFFFFFFFFF9675000000000000000000000000803FBC6C0E3E01837D3F00000080
1004
165B44C295F81E40000000000200C1915EBF948D30BFA4EE2CEA40C23486154089F27F401A4C40C29846174099058040698159BF52C831BF0200967598F5110000000100FFFF18A41300A438120000000200A438120018A4130001000000FFFFFFFF9675000000000000000000000000803FD68D2B3EBE61
1004
7C3F000000808AA643C293AD1E40000080400200698159BF52C831BFA4EE2CEA40C234861540123E33BA1A4C40C2984617409A75573A698159BF52C831BF02009675BCF611000000FFFF010018A41300C44812000000020018A41300C4481200FFFFFFFFFFFFFFFF9675000000000000000000000000803F
1004
D68D2B3EBE617C3F000000808AA643C291AD1E40000000000200698159BF52C831BFA4EE2E153FC270650D4089F27F4022783EC26DBF104099058040FFE51EBFF2BBEBBE02009675E0F7110000000100FFFFA87D1700A438120000000200A4381200A87D170001000000FFFFFFFF96750000000000000000
1004
00000000803F95DDA23EF2B3723F0000008071D340C2B6131A40000080400200FFE51EBFF2BBEBBEA4EE88793EC270650D40123E33BA22783EC2D87B0D4099058040FFFFFFBFFFFFFF3F0200967504F9110000000100FFFFA87D1700B87E170000000200B87E1700A87D1700FFFFFFFFFFFFFFFF96750000
1004
0000803F0000000000000000000000000000803F00000000D5783EC2A4700D40FFFFFF3F0200FFFFFFBFFFFFFF3FA4EE2E153FC270650D40123E33BA22783EC26DBF10409A75573AFFE51EBFF2BBEBBE0200967528FA11000000FFFF0100A87D1700C448120000000200A87D1700C4481200FFFFFFFFFFFF
1004
FFFF9675000000000000000000000000803F95DDA23EF2B3723F0000008071D340C2B5131A40000000000200FFE51EBFF2BBEBBEA4EE88793EC2DA210A4089F27F4015F63DC2D87B0D40990580401146FFBEAD30B9BE020096754CFB110000000100FFFFB87E1700A438120000000200A4381200B87E1700
1004
01000000FFFFFFFF9675000000000000000000000000803F7CCCBE3E788F6D3F000000808CD03FC2161116400000804002001146FFBEAD30B9BEA4EE88793EC2DA210A40123E33BA15F63DC2D87B0D409A75573A1146FFBEAD30B9BE0200967570FC11000000FFFF0100B87E1700C448120000000200B87E
1004
1700C4481200FFFFFFFFFFFFFFFF9675000000000000000000000000803F7CCCBE3E788F6D3F000000808CD03FC2151116400000000002001146FFBEAD30B9BEA4EE63F33CC2CD47FA3F89F27F40F06F3CC27E1702409905804082DE6BBEA390A8BD0200967594FD110000000100FFFFC87F1700A4381200
1004
00000200A4381200C87F170001000000FFFFFFFF9675000000000000000000000000803F1C75033F89AB5B3F00000080083B3DC2F1C0044000008040020082DE6BBEA390A8BDA4EE57713CC2CD47FA3F123E33BAF06F3CC29D74FA3F99058040FFFFFFBFFFFFFF3F02009675B8FE110000000100FFFFC87F
1004
1700D880170000000200D8801700C87F1700FFFFFFFFFFFFFFFF967500000000803F0000000000000000000000000000803F00000000A4703CC2355EFA3FFFFFFF3F0200FFFFFFBFFFFFFF3FA4EE63F33CC2CD47FA3F123E33BAF06F3CC27E1702409A75573A82DE6BBEA390A8BD02009675DCFF11000000
1004
FFFF0100C87F1700C448120000000200C87F1700C4481200FFFFFFFFFFFFFFFF9675000000000000000000000000803F1C75033F89AB5B3F00000080083B3DC2F0C0044000000000020082DE6BBEA390A8BDA4EE57713CC212D3E63F89F27F400B9F3BC29D74FA3F99058040927EC1BDC201243E02009675
1004
0001120000000100FFFFD8801700A438120000000200A4381200D880170001000000FFFFFFFF9675000000000000000000000000803F39F4183F6D484D3F0000008024ED3BC2DC1EEE3F000080400200927EC1BDC201243EA4EE71A03BC212D3E63F123E33BA0B9F3BC2E0FFE63F99058040FFFFFFBFFFFF
1004
FF3F02009675ECB9140000000100FFFFD8801700E4E4140000000200E4E41400D8801700FFFFFFFFFFFFFFFF967500000000803F0000000000000000000000000000803F00000000BD9F3BC279E9E63FFFFFFF3F0200FFFFFFBFFFFFFF3FA4EE57713CC212D3E63F123E33BA0B9F3BC29D74FA3F9A75573A
1004
927EC1BDC201243E020096756CBB14000000FFFF0100D8801700C448120000000200D8801700C4481200FFFFFFFFFFFFFFFF9675000000000000000000000000803F39F4183F6D484D3F0000008024ED3BC2DB1EEE3F000000000200927EC1BDC201243EA4EE71A03BC2EEF7DC3F89F27F409F373BC2E0FF
1004
E63F99058040C7D973BDBBEC893D02009675E848170000000100FFFFE4E41400A438120000000200A4381200E4E4140001000000FFFFFFFF9675000000000000000000000000803FB1351B3F30954B3F00000080CF683BC25BADE13F000080400200C7D973BDBBEC893DA4EE05393BC2EEF7DC3F123E33BA
1004
9F373BC2BE24DD3F99058040FFFFFFBFFFFFFF3F02009675D440120000000100FFFFE4E41400D81F170000000200D81F1700E4E41400FFFFFFFFFFFFFFFF967500000000803F0000000000000000000000000000803F0000000052383BC2560EDD3FFFFFFF3F0200FFFFFFBFFFFFFF3FA4EE71A03BC2EEF7
1004
DC3F123E33BA9F373BC2E0FFE63F9A75573AC7D973BDBBEC893D02009675F84112000000FFFF0100E4E41400C448120000000200E4E41400C4481200FFFFFFFFFFFFFFFF9675000000000000000000000000803FB1351B3F30954B3F00000080CF683BC25BADE13F000000000200C7D973BDBBEC893DA4EE
1004
05393BC25E0AD03F89F27F402BCF3AC2BE24DD3F990580404A9F863EBC24D03E020096751C43120000000100FFFFD81F1700A438120000000200A4381200D81F170001000000FFFFFFFF9675000000000000000000000000803FD91F343FEDE8353F0000008089103AC21172B83F0000804002004A9F863E
1004
BC24D03EA4EE92D03AC25E0AD03F123E33BA2BCF3AC22D37D03F99058040FFFFFFBFFFFFFF3F020096754044120000000100FFFFD81F1700E820170000000200E8201700D81F1700FFFFFFFFFFFFFFFF967500000000803F0000000000000000000000000000803F00000000DFCF3AC2C420D03FFFFFFF3F
1004
0200FFFFFFBFFFFFFF3FA4EE05393BC25E0AD03F123E33BA2BCF3AC2BE24DD3F9A75573A4A9F863EBC24D03E02009675307112000000FFFF0100D81F1700C448120000000200D81F1700C4481200FFFFFFFFFFFFFFFF9675000000000000000000000000803FD91F343FEDE8353F0000008089103AC21072
1004
B83F0000000002004A9F863EBC24D03EA4EE92D03AC2B1EDB53F89F27F40E6183AC22D37D03F9905804063EE933E8A460F3F020096755472120000000100FFFFE8201700A438120000000200A4381200E820170001000000FFFFFFFF9675000000000000000000000000803F15E5403FD84E283F00000080
1004
125739C2CF259A3F00008040020063EE933E8A460F3FA4EE4D1A3AC2B1EDB53F123E33BAE6183AC2811AB63F99058040FFFFFFBFFFFFFF3F020096757C72120000000100FFFFE8201700F821170000000200F8211700E8201700FFFFFFFFFFFFFFFF967500000000803F0000000000000000000000000000
1004
803F000000009A193AC21904B63FFFFFFF3F0200FFFFFFBFFFFFFF3FA4EE92D03AC2B1EDB53F123E33BAE6183AC22D37D03F9A75573A63EE933E8A460F3F02009675508A13000000FFFF0100E8201700C448120000000200E8201700C4481200FFFFFFFFFFFFFFFF9675000000000000000000000000803F
1004
15E5403FD84E283F00000080125739C2CE259A3F00000000020063EE933E8A460F3FA4EE4D1A3AC2C9F19B3F89F27F40417D39C2811AB63F990580407313CC3E46F5263F02009675403E120000000100FFFFF8211700A438120000000200A4381200F821170001000000FFFFFFFF96750000000000000000
1005
523
  0
INSERT
  8
AME_FRZ
  5
523
  2
AME_NIL
 10
1.0
 20
1.0
 30
1.0
1001
AME_SOL
1004
00000000803FC4EB4C3F4870193F00000080528938C2AF62663F0000804002007313CC3E46F5263FA4EEA77E39C2C9F19B3F123E33BA417D39C2991E9C3F99058040FFFFFFBFFFFFFF3F02009675643F120000000100FFFFF8211700082317000000020008231700F8211700FFFFFFFFFFFFFFFF96750000
1004
0000803F0000000000000000000000000000803F00000000F47D39C231089C3FFFFFFF3F0200FFFFFFBFFFFFFF3FA4EE4D1A3AC2C9F19B3F123E33BA417D39C2811AB63F9A75573A7313CC3E46F5263F02009675E8DC14000000FFFF0100F8211700C448120000000200F8211700C4481200FFFFFFFFFFFF
1004
FFFF9675000000000000000000000000803FC4EB4C3F4870193F00000080528938C2AF62663F0000000002007313CC3E46F5263FA4EEA77E39C2E3F5813F89F27F4033FB38C2991E9C3F99058040277F093FD9D2463F0200967534DE140000000100FFFF08231700A438120000000200A438120008231700
1004
01000000FFFFFFFF9675000000000000000000000000803FAF06593F2CC7073F000000802FD837C241860F3F000080400200277F093FD9D2463FA4EE9AFC38C2E3F5813F123E33BA33FB38C2B222823F99058040FFFFFFBFFFFFFF3F02009675E8DF140000000100FFFF0823170018241700000002001824
1004
170008231700FFFFFFFFFFFFFFFF967500000000803F0000000000000000000000000000803F00000000E7FB38C24B0C823FFFFFFF3F0200FFFFFFBFFFFFFF3FA4EEA77E39C2E3F5813F123E33BA33FB38C2991E9C3F9A75573A277F093F78CF463F0200967534E114000000FFFF010008231700C4481200
1004
0000020008231700C4481200FFFFFFFFFFFFFFFF9675000000000000000000000000803FAF06593F2CC7073F000000802FD837C242860F3F000000000200277F093F78CF463FA4EE9AFC38C2034C493F89F27F40C19238C2B222823F990580400494503FF060883F02009675E8E2140000000100FFFF1824
1004
1700A438120000000200A43812001824170001000000FFFFFFFF9675000000000000000000000000803F3DDA693F3151D03E00000080FF3F37C254FC2E3D0000804002000494503FF060883FA4EE289438C2034C493F123E33BAC19238C2A3A5493F99058040FFFFFFBFFFFFFF3F020096759C2112000000
1004
0100FFFF1824170028251700000002002825170018241700FFFFFFFFFFFFFFFF967500000000803F0000000000000000000000000000803F00000000759338C2D578493FFFFFFF3F0200FFFFFFBFFFFFFF3FA4EE9AFC38C2034C493F123E33BAC19238C2B222823F9A75573A0494503FF060883F02009675
1004
7C2212000000FFFF010018241700C44812000000020018241700C4481200FFFFFFFFFFFFFFFF9675000000000000000000000000803F3DDA693F3151D03E00000080FF3F37C263FC2E3D0000000002000494503FF060883FA4EE289438C2E245083F89F27F40EF4438C2A3A5493F990580402521843FD10F
1004
A63F02009675D423120000000100FFFF28251700A438120000000200A43812002825170001000000FFFFFFFF9675000000000000000000000000803FAC41753FAFC4923E00000080A21637C26E6EE9BE0000804002002521843FD10FA63FA4EE554638C2E245083F123E33BAEF4438C27F9F083F99058040
1004
FFFFFFBFFFFFFF3F020096754425120000000100FFFF2825170064E614000000020064E6140028251700FFFFFFFFFFFFFFFF967500000000803F0000000000000000000000000000803F00000000A14538C2AE72083FFFFFFF3F0200FFFFFFBFFFFFFF3FA4EE289438C2E245083F123E33BAEF4438C2A3A5
1004
493F9A75573A2521843FD10FA63F02009675D42612000000FFFF010028251700C44812000000020028251700C4481200FFFFFFFFFFFFFFFF9675000000000000000000000000803FAC41753FAFC4923E00000080A21637C2706EE9BE0000000002002521843FD10FA63FA4EE554638C27B7F8E3E89F27F40
1004
B51038C27F9F083F99058040415B933FD283B43F020096754428120000000100FFFF64E61400A438120000000200A438120064E6140001000000FFFFFFFF9675000000000000000000000000803F7AFD7A3F6C97493E00000080562937C2CB8259BF000080400200415B933FD283B43FA4EE554638C27B7F
1004
8E3E123E33BAB51038C27F9F083F9A75573A415B933FD283B43F02009675682912000000FFFF010064E61400C44812000000020064E61400C4481200FFFFFFFFFFFFFFFF9675000000000000000000000000803F7AFD7A3F6C97493E00000080562937C2CB8259BF000000000200415B933FD283B43FA4EE
1004
82F837C27D9F08BF89F27F407CDC37C296C568BE990580401CCBB23F64FAD93F020096751465120000000100FFFF74E71400A438120000000200A438120074E7140001000000FFFFFFFF9675000000000000000000000000803F26137F3FBAF5ADBD000000004F7138C21860F6BF0000804002001CCBB23F
1004
64FAD93FA4EE82F837C27D9F08BF123E33BA1CF737C2DF4508BF99058040FFFFFFBFFFFFFF3F02009675ACD4140000000100FFFF74E7140084E814000000020084E8140074E71400FFFFFFFFFFFFFFFF967500000000803F0000000000000000000000000000803F00000000CEF737C2B07208BFFFFFFF3F
1004
0200FFFFFFBFFFFFFF3FA4EE82F837C27D9F08BF123E33BA7CDC37C296C568BE9A75573A1CCBB23F64FAD93F020096752CD614000000FFFF010074E71400C44812000000020074E71400C4481200FFFFFFFFFFFFFFFF9675000000000000000000000000803F26137F3FBAF5ADBD000000004F7138C21860
1004
F6BF0000000002001CCBB23F64FAD93FA4EE554638C28F4D50BF89F27F401CF737C2DF4508BF99058040CDF9CF3FE209F53F02009675ACD7140000000100FFFF84E81400A438120000000200A438120084E8140001000000FFFFFFFF9675000000000000000000000000803F910F773F671E86BE00000000
1004
51F939C2B35A18C0000080400200CDF9CF3FE209F53FA4EE554638C28F4D50BF123E33BAEF4438C2F1F34FBF99058040FFFFFFBFFFFFFF3F020096752CD9140000000100FFFF84E81400F4E9140000000200F4E9140084E81400FFFFFFFFFFFFFFFF967500000000803F0000000000000000000000000000
1004
803F00000000A14538C2C22050BFFFFFFF3F0200FFFFFFBFFFFFFF3FA4EE554638C28F4D50BF123E33BA1CF737C2DF4508BF9A75573A7A95D03FE209F53F02009675ACDA14000000FFFF010084E81400C44812000000020084E81400C4481200FFFFFFFFFFFFFFFF9675000000000000000000000000803F
1004
910F773F671E86BE0000000051F939C2B45A18C00000000002007A95D03FE209F53FA4EE289438C20FDD8BBF89F27F40EF4438C2F1F34FBF9905804019ADBD3F99C7E23F02009675E017120000000100FFFFF4E91400A438120000000200A4381200F4E9140001000000FFFFFFFF96750000000000000000
1004
00000000803FF9FF763F159186BE0000000044223AC2436421C000008040020019ADBD3F99C7E23FA4EE289438C20FDD8BBF123E33BAC19238C240B08BBF99058040FFFFFFBFFFFFFF3F020096756019120000000100FFFFF4E91400ACCE120000000200ACCE1200F4E91400FFFFFFFFFFFFFFFF96750000
1004
0000803F0000000000000000000000000000803F00000000759338C2A8C68BBFFFFFFF3F0200FFFFFFBFFFFFFF3FA4EE289438C20FDD8BBF123E33BAEF4438C2F1F34FBF9A75573A19ADBD3F95C7E23F02009675E01A12000000FFFF0100F4E91400C448120000000200F4E91400C4481200FFFFFFFFFFFF
1004
FFFF9675000000000000000000000000803FF9FF763F159186BE0000000044223AC2416421C000000000020019ADBD3F95C7E23FA4EE9AFC38C2EE2CA9BF89F27F40C19238C240B08BBF99058040F2FED13F0D14F23F02009675601C120000000100FFFFACCE1200A438120000000200A4381200ACCE1200
1004
01000000FFFFFFFF9675000000000000000000000000803F3DDA693F3151D0BE0000000069A73BC2B17434C0000080400200F2FED13F0D14F23FA4EE9AFC38C2EE2CA9BF123E33BA33FB38C22100A9BF99058040FFFFFFBFFFFFFF3F02009675E01D120000000100FFFFACCE1200BCCF120000000200BCCF
1004
1200ACCE1200FFFFFFFFFFFFFFFF967500000000803F0000000000000000000000000000803F00000000E7FB38C28816A9BFFFFFFF3F0200FFFFFFBFFFFFFF3FA4EE9AFC38C2EE2CA9BF123E33BAC19238C240B08BBF9A75573A54FDD13F0D14F23F02009675C01E12000000FFFF0100ACCE1200C4481200
1004
00000200ACCE1200C4481200FFFFFFFFFFFFFFFF9675000000000000000000000000803F3DDA693F3151D0BE0000000069A73BC2AE7434C000000000020054FDD13F0D14F23FA4EEA77E39C2CB7CC6BF89F27F4033FB38C22100A9BF99058040136ED13F7CF2F23F02009675E41F120000000100FFFFBCCF
1004
1200A438120000000200A4381200BCCF120001000000FFFFFFFF9675000000000000000000000000803F0DE05F3F5152F8BE0000000089AA3CC200C63EC0000080400200136ED13F7CF2F23FA4EEA77E39C2CB7CC6BF123E33BA417D39C2FE4FC6BF99058040FFFFFFBFFFFFFF3F02009675082112000000
1004
0100FFFFBCCF1200CCD0120000000200CCD01200BCCF1200FFFFFFFFFFFFFFFF967500000000803F0000000000000000000000000000803F00000000F47D39C26566C6BFFFFFFF3F0200FFFFFFBFFFFFFF3FA4EEA77E39C2CB7CC6BF123E33BA33FB38C22100A9BF9A75573A136ED13F7CF2F23F02009675
1004
94C614000000FFFF0100BCCF1200C448120000000200BCCF1200C4481200FFFFFFFFFFFFFFFF9675000000000000000000000000803F0DE05F3F5152F8BE0000000089AA3CC2FFC53EC0000000000200136ED13F7CF2F23FA4EE4D1A3AC2B778E0BF89F27F40417D39C2FE4FC6BF99058040E187D83F75FE
1004
F83F02009675B8C7140000000100FFFFCCD01200A438120000000200A4381200CCD0120001000000FFFFFFFF9675000000000000000000000000803FCDEB4C3F3B7019BF00000000DF273EC255DB46C0000080400200E187D83F75FEF83FA4EE4D1A3AC2B778E0BF123E33BAE6183AC2EC4BE0BF99058040
1004
FFFFFFBFFFFFFF3F02009675DCC8140000000100FFFFCCD01200DCD1120000000200DCD11200CCD01200FFFFFFFFFFFFFFFF967500000000803F0000000000000000000000000000803F000000009A193AC25062E0BFFFFFFF3F0200FFFFFFBFFFFFFF3FA4EE4D1A3AC2B778E0BF123E33BA417D39C2FE4F
1004
C6BF9A75573AE187D83F75FEF83F0200967500CA14000000FFFF0100CCD01200C448120000000200CCD01200C4481200FFFFFFFFFFFFFFFF9675000000000000000000000000803FCDEB4C3F3B7019BF00000000DF273EC254DB46C0000000000200E187D83F75FEF83FA4EE92D03AC29774FABF89F27F40
1004
E6183AC2EC4BE0BF990580405E23D13F1DB1F33F0200967524CB140000000100FFFFDCD11200A438120000000200A4381200DCD1120001000000FFFFFFFF9675000000000000000000000000803FF37B403F0BC728BF00000000EC1E3FC2F6CE4BC00000804002005E23D13F1DB1F33FA4EE92D03AC29774
1004
FABF123E33BA2BCF3AC2CB47FABF99058040FFFFFFBFFFFFFF3F0200967548CC140000000100FFFFDCD11200CCD4120000000200CCD41200DCD11200FFFFFFFFFFFFFFFF967500000000803F0000000000000000000000000000803F00000000DFCF3AC2335EFABFFFFFFF3F0200FFFFFFBFFFFFFF3FA4EE
1004
92D03AC29774FABF123E33BAE6183AC2EC4BE0BF9A75573A5E23D13F1DB1F33F02009675CCCD14000000FFFF0100DCD11200C448120000000200DCD11200C4481200FFFFFFFFFFFFFFFF9675000000000000000000000000803FF37B403F0BC728BF00000000EC1E3FC2F3CE4BC00000000002005E23D13F
1004
1DB1F33FA4EE71A03BC20F0507C089F27F402BCF3AC2CB47FABF99058040B517D83F28A3F83F020096754CCF140000000100FFFFCCD41200A438120000000200A4381200CCD4120001000000FFFFFFFF9675000000000000000000000000803F6F151A3FB26F4CBF00000000500441C26D0248C000008040
1004
0200B517D83F28A3F83FA4EE71A03BC20F0507C0123E33BA0B9F3BC2ABEE06C099058040FFFFFFBFFFFFFF3F02009675CCD0140000000100FFFFCCD41200DCD5120000000200DCD51200CCD41200FFFFFFFFFFFFFFFF967500000000803F0000000000000000000000000000803F00000000BD9F3BC2DDF9
1004
06C0FFFFFF3F0200FFFFFFBFFFFFFF3FA4EE71A03BC20F0507C0123E33BA2BCF3AC2CB47FABF9A75573AB517D83F28A3F83F020096754CD214000000FFFF0100CCD41200C448120000000200CCD41200C4481200FFFFFFFFFFFFFFFF9675000000000000000000000000803F6F151A3FB26F4CBF00000000
1004
500441C26D0248C0000000000200B517D83F28A3F83FA4EEF08A3CC26CBF10C089F27F400B9F3BC2ABEE06C099058040A3C5C93F64F2EC3F0200967588D9120000000100FFFFDCD51200A438120000000200A4381200DCD5120001000000FFFFFFFF9675000000000000000000000000803F97920D3F954A
1004
55BF0000000017CB41C2A07E48C0000080400200A3C5C93F64F2EC3FA4EEF08A3CC26CBF10C0123E33BA89893CC204A910C099058040FFFFFFBFFFFFFF3F0200967544E2120000000100FFFFDCD51200ECD6120000000200ECD61200DCD51200FFFFFFFFFFFFFFFF967500000000803F0000000000000000
1004
000000000000803F000000003D8A3CC238B410C0FFFFFF3F0200FFFFFFBFFFFFFF3FA4EEF08A3CC26CBF10C0123E33BA0B9F3BC2ABEE06C09A75573AA3C5C93F64F2EC3F02009675984916000000FFFF0100DCD51200C448120000000200DCD51200C4481200FFFFFFFFFFFFFFFF96750000000000000000
1004
00000000803F97920D3F954A55BF0000000017CB41C2A07E48C0000000000200A3C5C93F64F2EC3FA4EE6F753DC231E018C089F27F4089893CC204A910C09905804016ACBE3FD530E03F02009675BC4A160000000100FFFFECD61200A438120000000200A4381200ECD6120001000000FFFFFFFF96750000
1004
00000000000000000000803F5651F83E52E05FBF00000000B2AA42C2C81147C000008040020016ACBE3FD530E03FA4EE6F753DC231E018C0123E33BA09743DC2C9C918C099058040FFFFFFBFFFFFFF3F02009675E04B160000000100FFFFECD61200FCD7120000000200FCD71200ECD61200FFFFFFFFFFFF
1004
FFFF967500000000803F0000000000000000000000000000803F00000000BB743DC2FDD418C0FFFFFF3F0200FFFFFFBFFFFFFF3FA4EE6F753DC231E018C0123E33BA89893CC204A910C09A75573AACABBE3FD530E03F02009675044D16000000FFFF0100ECD61200C448120000000200ECD61200C4481200
1004
FFFFFFFFFFFFFFFF9675000000000000000000000000803F5651F83E52E05FBF00000000B2AA42C2C71147C0000000000200ACABBE3FD530E03FA4EEE95E3EC25B671FC089F27F4009743DC2C9C918C099058040D522B33F9819D33F02009675284E160000000100FFFFFCD71200A438120000000200A438
1004
1200FCD7120001000000FFFFFFFF9675000000000000000000000000803F2215D13E82AE69BF00000000547A43C286EF43C0000080400200D522B33F9819D33FA4EEE95E3EC25B671FC0123E33BA815D3EC2F5501FC099058040FFFFFFBFFFFFFF3F020096753816120000000100FFFFFCD71200E0D21200
1004
00000200E0D21200FCD71200FFFFFFFFFFFFFFFF967500000000803F0000000000000000000000000000803F00000000355E3EC2275C1FC0FFFFFF3F0200FFFFFFBFFFFFFF3FA4EEE95E3EC25B671FC0123E33BA09743DC2C9C918C09A75573AA423B33F9819D33F02009675504E16000000FFFF0100FCD7
1004
1200C448120000000200FCD71200C4481200FFFFFFFFFFFFFFFF9675000000000000000000000000803F2215D13E82AE69BF00000000547A43C286EF43C0000000000200A423B33F9819D33FA4EE07643FC225DE25C089F27F40815D3EC2F5501FC0990580409F4CA13F8A68C43F02009675ECC314000000
1004
0100FFFFE0D21200A438120000000200A4381200E0D2120001000000FFFFFFFF9675000000000000000000000000803F948ABC3EB6026EBF000000000C1344C2DE8543C00000804002009F4CA13F8A68C43FA4EE07643FC225DE25C0123E33BAA0623FC2BEC725C099058040FFFFFFBFFFFFFF3F02009675
1004
10C5140000000100FFFFE0D2120098CC12000000020098CC1200E0D21200FFFFFFFFFFFFFFFF967500000000803F0000000000000000000000000000803F0000000054633FC2F3D225C0FFFFFF3F0200FFFFFFBFFFFFFF3FA4EE07643FC225DE25C0123E33BA815D3EC2F5501FC09A75573A9F4CA13F8A68
1004
C43F0200967524E112000000FFFF0100E0D21200C448120000000200E0D21200C4481200FFFFFFFFFFFFFFFF9675000000000000000000000000803F948ABC3EB6026EBF000000000C1344C2DD8543C00000000002009F4CA13F8A68C43FA4EEB98140C2B8CB2AC089F27F40A0623FC2BEC725C099058040
1004
A87E8F3F558AB43F020096750052160000000100FFFF98CC1200A438120000000200A438120098CC120001000000FFFFFFFF9675000000000000000000000000803F8736883E32C676BF000000009CD344C2FCD63DC0000080400200A87E8F3F558AB43FA4EEB98140C2B8CB2AC0123E33BAA0623FC2BEC7
1004
25C09A75573AB77E8F3F558AB43F02009675E05216000000FFFF010098CC1200C44812000000020098CC1200C4481200FFFFFFFFFFFFFFFF9675000000000000000000000000803F8736883E32C676BF000000009CD344C2FCD63DC0000000000200B77E8F3F558AB43FA4EED80648C2E7A82FC089F27F40
1004
F6F042C27E922FC0990580406F5CAFBE70706D3F020096750454160000000100FFFFA0DA1200A438120000000200A4381200A0DA120001000000FFFFFFFF9675000000000000000000000000803F2EBD3B33000080BF000000006CA746C2B49D2FC00000804002006F5CAFBE70706D3FA4EED80648C2E7A8
1004
2FC0123E33BAF6F042C27E922FC09A75573A6F5CAFBE70706D3F02009675285516000000FFFF0100A0DA1200C448120000000200A0DA1200C4481200FFFFFFFFFFFFFFFF9675000000000000000000000000803F2EBD3B33000080BF000000006CA746C2B29D2FC00000000002006F5CAFBE70706D3FA4EE
1004
789B40C2A2944EC089F27F4022FE3FC2B7CF4CC0BB068040F0EBADBF07289ABF020096754C56160000000100FFFFE8D31200A438120000000200A4381200E8D3120001000000FFFFFFFF9675000000000000000000000000803F6CA62CBEC8557C3F00000000855A45C2DD865BC0000080400200F0EBADBF
1004
07289ABFA4EED2FF3FC2A6EA4CC09A7557BA22FE3FC2B7CF4CC0BB068040000000C000000040020096757057160000000100FFFFE8D3120098DC12000000020098DC1200E8D31200FFFFFFFFFFFFFFFF967500000000803F0000000000000000000000000000803F00000000FAFE3FC22FDD4CC000000040
1004
0200000000C000000040A4EE789B40C2A2944EC09A7557BAC99940C2B3794EC0BB068040000000C00000004002009675304F16000000FFFF0100E8D312000C36120000000200E8D312000C361200FFFFFFFF01000000967500000000803F0000000000000000000000000000803F00000000A09A40C22B87
1004
4EC0000000400200000000C000000040A4EE789B40C2A2944EC09A7557BA22FE3FC2B7CF4CC09A75573AB1EEADBFC22C9ABF02009675B85916000000FFFF0100E8D31200C448120000000200E8D31200C4481200FFFFFFFFFFFFFFFF9675000000000000000000000000803F6CA62CBEC8557C3F00000000
1004
855A45C2DE865BC0000000000200B1EEADBFC22C9ABFA4EED2FF3FC2A6EA4CC089F27F407D623FC21E364BC0BB06804094F5B7BFF837A4BF02009675985A160000000100FFFF98DC1200A438120000000200A438120098DC120001000000FFFFFFFF9675000000000000000000000000803FCB2F26BE2E9B
1004
7C3F000000004E0F45C28B305AC000008040020094F5B7BFF837A4BFA4EE2B643FC20D514BC09A7557BA7D623FC21E364BC0BB068040000000C00000004002009675BC5B160000000100FFFF98DC12008C341200000002008C34120098DC120001000000FFFFFFFF967500000000803F0000000000000000
1004
000000000000803F0000000054633FC296434BC0000000400200000000C000000040A4EED2FF3FC2A6EA4CC09A7557BA7D623FC21E364BC09A75573A9CF0B7BF3735A4BF02009675E05C16000000FFFF010098DC1200C44812000000020098DC1200C4481200FFFFFFFFFFFFFFFF96750000000000000000
1004
00000000803FCB2F26BE2E9B7C3F000000004E0F45C28C305AC00000000002009CF0B7BF3735A4BFA4EE80C73EC211A749C089F27F40C4433EC2EE5846C0BB0680405761C0BFFAE8AEBF02009675045E160000000100FFFFA8DD1200A438120000000200A4381200A8DD120001000000FFFFFFFF96750000
1004
00000000000000000000803F7590BBBE19346E3F00000000AADC43C253A369C00000804002005761C0BFFAE8AEBFA4EE74453EC2DD7346C09A7557BAC4433EC2EE5846C0BB068040000000C00000004002009675285F160000000100FFFFA8DD1200B8DE120000000200B8DE1200A8DD1200FFFFFFFFFFFF
1004
FFFF967500000000803F0000000000000000000000000000803F000000009C443EC2666646C0000000400200000000C000000040A4EE80C73EC211A749C09A7557BAD1C53EC2228C49C0BB068040000000C00000004002009675C86016000000FFFF0100A8DD12008C34120000000200A8DD12008C341200
1004
FFFFFFFF01000000967500000000803F0000000000000000000000000000803F00000000A8C63EC29A9949C0000000400200000000C000000040A4EE80C73EC211A749C09A7557BAC4433EC2EE5846C09A75573A5761C0BFFFE8AEBF02009675486216000000FFFF0100A8DD1200C448120000000200A8DD
1004
1200C4481200FFFFFFFFFFFFFFFF9675000000000000000000000000803F7590BBBE19346E3F00000000AADC43C255A369C00000000002005761C0BFFFE8AEBFA4EE74453EC2DD7346C089F27F401FA83DC2591543C0BB0680409B07CFBF8A93BABF020096752863160000000100FFFFB8DE1200A4381200
1004
00000200A4381200B8DE120001000000FFFFFFFF9675000000000000000000000000803F87DDA2BEF4B3723F00000000B4CB43C2291364C00000804002009B07CFBF8A93BABFA4EECDA93DC2473043C09A7557BA1FA83DC2591543C0BB068040000000C000000040020096754C64160000000100FFFFB8DE
1004
1200C8DF120000000200C8DF1200B8DE1200FFFFFFFFFFFFFFFF967500000000803F0000000000000000000000000000803F00000000F6A83DC2D12243C0000000400200000000C000000040A4EE74453EC2DD7346C09A7557BA1FA83DC2591543C09A75573A9B07CFBF8A93BABF02009675706516000000
1004
FFFF0100B8DE1200C448120000000200B8DE1200C4481200FFFFFFFFFFFFFFFF9675000000000000000000000000803F87DDA2BEF4B3723F00000000B4CB43C22A1364C00000000002009B07CFBF8A93BABFA4EECDA93DC2473043C089F27F40730B3DC2C3D13FC0BB0680402094D9BFB4E0C4BF02009675
1004
9466160000000100FFFFC8DF1200A438120000000200A4381200C8DF120001000000FFFFFFFF9675000000000000000000000000803FCAE8A1BEE1DC723F00000000A37F43C27B4662C00000804002002094D9BFB4E0C4BFA4EE220D3DC2B1EC3FC09A7557BA730B3DC2C3D13FC0BB068040000000C00000
1004
004002009675B867160000000100FFFFC8DF1200FC32120000000200FC321200C8DF120001000000FFFFFFFF967500000000803F0000000000000000000000000000803F000000004A0C3DC23BDF3FC0000000400200000000C000000040A4EECDA93DC2473043C09A7557BA730B3DC2C3D13FC09A75573A
1004
F993D9BFB4E0C4BF02009675DC6816000000FFFF0100C8DF1200C448120000000200C8DF1200C4481200FFFFFFFFFFFFFFFF9675000000000000000000000000803FCAE8A1BEE1DC723F00000000A37F43C27C4662C0000000000200F993D9BFB4E0C4BFA4EE158B3CC21CA93CC089F27F405A073CC200B1
1004
37C0BB0680408FC3DABFA8D2C7BF02009675006A160000000100FFFFE4EA1400A438120000000200A4381200E4EA140001000000FFFFFFFF9675000000000000000000000000803F0C7503BF93AB5B3F00000000EEE541C275E96FC00000804002008FC3DABFA8D2C7BFA4EE08093CC2EECB37C09A7557BA
1004
5A073CC200B137C0BB068040000000C00000004002009675000C120000000100FFFFE4EA1400F4EB140000000200F4EB1400E4EA1400FFFFFFFFFFFFFFFF967500000000803F0000000000000000000000000000803F0000000031083CC276BE37C0000000400200000000C000000040A4EE158B3CC21CA9
1004
3CC09A7557BA65893CC22E8E3CC0BB068040000000C00000004002009675B40D12000000FFFF0100E4EA1400FC32120000000200E4EA1400FC321200FFFFFFFF01000000967500000000803F0000000000000000000000000000803F000000003D8A3CC2A59B3CC0000000400200000000C000000040A4EE
1004
158B3CC21CA93CC09A7557BA5A073CC200B137C09A75573AA1C2DABFA8D2C7BF02009675000F12000000FFFF0100E4EA1400C448120000000200E4EA1400C4481200FFFFFFFFFFFFFFFF9675000000000000000000000000803F0C7503BF93AB5B3F00000000EEE541C275E96FC0000000000200A1C2DABF
1004
A8D2C7BFA4EE08093CC2EECB37C089F27F40B46B3BC2D0D332C0BB068040A1C1EDBF4801D8BF02009675B410120000000100FFFFF4EB1400A438120000000200A4381200F4EB140001000000FFFFFFFF9675000000000000000000000000803F02F9E4BE39F9643F00000000D11142C2700B68C000008040
1004
0200A1C1EDBF4801D8BFA4EE636D3BC2BFEE32C09A7557BAB46B3BC2D0D332C0BB068040000000C000000040020096750012120000000100FFFFF4EB1400A0ED140000000200A0ED1400F4EB1400FFFFFFFFFFFFFFFF967500000000803F0000000000000000000000000000803F000000008B6C3BC247E1
1004
32C0000000400200000000C000000040A4EE08093CC2EECB37C09A7557BAB46B3BC2D0D332C09A75573AA1C1EDBF4801D8BF02009675B41312000000FFFF0100F4EB1400C448120000000200F4EB1400C4481200FFFFFFFFFFFFFFFF9675000000000000000000000000803F02F9E4BE39F9643F00000000
1004
D11142C2720B68C0000000000200A1C1EDBF4801D8BFA4EE636D3BC2BFEE32C089F27F40A1E83AC23EE62DC0BB0680403310EFBF59E5DBBF0200967530BF140000000100FFFFA0ED1400A438120000000200A4381200A0ED140001000000FFFFFFFF9675000000000000000000000000803FD9F603BFB15D
1004
5B3F00000000125041C2668F6BC00000804002003310EFBF59E5DBBFA4EE51EA3AC22D012EC09A7557BAA1E83AC23EE62DC0BB068040000000C0000000400200967510C0140000000100FFFFA0ED1400B0EE140000000200B0EE1400A0ED1400FFFFFFFFFFFFFFFF967500000000803F0000000000000000
1004
000000000000803F0000000079E93AC2B5F32DC0000000400200000000C000000040A4EE636D3BC2BFEE32C09A7557BAA1E83AC23EE62DC09A75573A3310EFBF59E5DBBF0200967534C114000000FFFF0100A0ED1400C448120000000200A0ED1400C4481200FFFFFFFFFFFFFFFF96750000000000000000
1004
00000000803FD9F603BFB15D5B3F00000000125041C2678F6BC00000000002003310EFBF59E5DBBFA4EE51EA3AC22D012EC089F27F4096663AC20F0929C0BB068040058EF8BFB792E5BF0200967558C2140000000100FFFFB0EE1400A438120000000200A4381200B0EE140001000000FFFFFFFF96750000
1004
00000000000000000000803F0A7503BF94AB5B3F00000000441241C24DED68C0000080400200058EF8BFB792E5BFA4EE44683AC2FE2329C09A7557BA96663AC20F0929C0BB068040000000C00000004002009675886B160000000100FFFFB0EE1400C0EF140000000200C0EF1400B0EE1400FFFFFFFFFFFF
1004
FFFF967500000000803F0000000000000000000000000000803F000000006D673AC2861629C0000000400200000000C000000040A4EE51EA3AC22D012EC09A7557BA96663AC20F0929C09A75573A058EF8BF6AA2E5BF02009675AC6C16000000FFFF0100B0EE1400C448120000000200B0EE1400C4481200
1004
FFFFFFFFFFFFFFFF9675000000000000000000000000803F0A7503BF94AB5B3F00000000441241C24DED68C0000000000200058EF8BF6AA2E5BFA4EE44683AC2FE2329C089F27F4029FF39C2E48122C0BB06804019CBE1BF186BCFBF02009675D06D160000000100FFFFC0EF1400A438120000000200A438
1004
1200C0EF140001000000FFFFFFFF9675000000000000000000000000803F45E835BF8320343F00000000F9F63EC2E4C772C000008040020019CBE1BF186BCFBFA4EED7003AC2D39C22C09A7557BA29FF39C2E48122C0BB068040000000C00000004002009675F46E160000000100FFFFC0EF1400D0F01400
1004
00000200D0F01400C0EF1400FFFFFFFFFFFFFFFF967500000000803F0000000000000000000000000000803F0000000001003AC25C8F22C0000000400200000000C000000040A4EE44683AC2FE2329C09A7557BA29FF39C2E48122C09A75573A19CBE1BF2A6BCFBF02009675187016000000FFFF0100C0EF
1004
1400C448120000000200C0EF1400C4481200FFFFFFFFFFFFFFFF9675000000000000000000000000803F45E835BF8320343F00000000F9F63EC2E7C772C000000000020019CBE1BF2A6BCFBFA4EED7003AC2D39C22C089F27F401D7D39C21B0B1CC0BB068040CE0DFEBFBB48E9BF020096753C7116000000
1004
0100FFFFD0F01400A438120000000200A4381200D0F0140001000000FFFFFFFF9675000000000000000000000000803F62581FBFC75C483F00000000ABB43FC2B3296BC0000080400200CE0DFEBFBB48E9BFA4EECC7E39C20A261CC09A7557BA1D7D39C21B0B1CC0BB068040000000C00000004002009675
1004
6072160000000100FFFFD0F01400EC31120000000200EC311200D0F0140001000000FFFFFFFF967500000000803F0000000000000000000000000000803F00000000F47D39C292181CC0000000400200000000C000000040A4EED7003AC2D39C22C09A7557BA1D7D39C21B0B1CC09A75573ACE0DFEBFBB48
1004
E9BF02009675404717000000FFFF0100D0F01400C448120000000200D0F01400C4481200FFFFFFFFFFFFFFFF9675000000000000000000000000803F62581FBFC75C483F00000000ABB43FC2B5296BC0000000000200CE0DFEBFBB48E9BFA4EE659839C23965004089F27F40A91439C252070740BB068040
1004
A36500BE3A93193D02009675A845120000000100FFFFE0F11400A438120000000200A4381200E0F1140001000000FFFFFFFF9675000000000000000000000000803F5C4E20BF309847BF00000000713339C264F30140000080400200A36500BE3A93193DA4EE659839C263EC06409A7557BAB69639C25207
1004
0740BB068040000000C0000000400200967588BD140000000100FFFFE0F11400F0F2140000000200F0F21400E0F11400FFFFFFFFFFFFFFFF967500000000803F0000000000000000000000000000803F000000008D9739C2DBF90640000000400200000000C000000040A4EE591639C2396500409A7557BA
1004
A91439C226800040BB068040000000C00000004002009675406016000000FFFF0100E0F11400FCC9120000000200E0F11400FCC91200FFFFFFFF01000000967500000000803F0000000000000000000000000000803F00000000811539C2B0720040000000400200000000C000000040A4EE659839C23965
1004
00409A7557BAA91439C2520707409A75573AA36500BE3A93193D0200967564B418000000FFFF0100E0F11400C448120000000200E0F11400C4481200FFFFFFFFFFFFFFFF9675000000000000000000000000803F5C4E20BF309847BF00000000713339C264F30140000000000200A36500BE3A93193DA4EE
1004
D7003AC263EC064089F27F40B69639C21A7E0D40BB068040B8320ABFE0E5CABE0200967588B5180000000100FFFFF0F21400A438120000000200A4381200F0F2140001000000FFFFFFFF9675000000000000000000000000803FCF1F34BFF7E835BF00000000337738C20843EA3F000080400200B8320ABF
1004
E0E5CABEA4EED7003AC228630D409A7557BA29FF39C21A7E0D40BB068040000000C00000004002009675E4C5180000000100FFFFF0F21400ECC8120000000200ECC81200F0F2140001000000FFFFFFFF967500000000803F0000000000000000000000000000803F0000000001003AC2A3700D4000000040
1004
0200000000C000000040A4EED7003AC263EC06409A7557BAB69639C21A7E0D409A75573ACC300ABFE0E5CABE0200967508C718000000FFFF0100F0F21400C448120000000200F0F21400C4481200FFFFFFFFFFFFFFFF9675000000000000000000000000803FCF1F34BFF7E835BF00000000337738C20843
1005
524
  0
INSERT
  8
AME_FRZ
  5
524
  2
AME_NIL
 10
1.0
 20
1.0
 30
1.0
1001
AME_SOL
1004
EA3F000000000200CC300ABFE0E5CABEA4EE413D3CC2B34E1F4089F27F40E79E3BC2CD462440BB06804038FB4E3E50EEBE3E020096759C82170000000100FFFF00F41400A438120000000200A438120000F4140001000000FFFFFFFF9675000000000000000000000000803FCBC5E3BEC74565BF00000000
1004
BFF53CC243FA294000008040020038FB4E3E50EEBE3EA4EE413D3CC2E02B24409A7557BA933B3CC2CD462440BB068040000000C0000000400200967580C2140000000100FFFF00F4140010F514000000020010F5140000F41400FFFFFFFFFFFFFFFF967500000000803F0000000000000000000000000000
1004
803F000000006A3C3CC254392440000000400200000000C000000040A4EE95A03BC2B34E1F409A7557BAE79E3BC29E691F40BB068040000000C00000004002009675DC0A19000000FFFF010000F41400CCC612000000020000F41400CCC61200FFFFFFFF01000000967500000000803F0000000000000000
1004
000000000000803F00000000BE9F3BC22A5C1F40000000400200000000C000000040A4EE413D3CC2B34E1F409A7557BAE79E3BC2CD4624409A75573A38FB4E3E50EEBE3E02009675848E14000000FFFF010000F41400C44812000000020000F41400C4481200FFFFFFFFFFFFFFFF96750000000000000000
1004
00000000803FCBC5E3BEC74565BF00000000BFF53CC243FA294000000000020038FB4E3E50EEBE3EA4EEE8D83CC2E02B244089F27F40933B3CC2FE232940BB06804072E7E03D061E8F3E0200967568A4100000000100FFFF10F51400A438120000000200A438120010F5140001000000FFFFFFFF96750000
1004
00000000000000000000803F4DF9E4BE26F964BF00000000973B3DC2C2322C4000008040020072E7E03D061E8F3EA4EEE8D83CC20F0929409A7557BA38D73CC2FE232940BB068040000000C00000004002009675B835180000000100FFFF10F5140020F614000000020020F6140010F51400FFFFFFFFFFFF
1004
FFFF967500000000803F0000000000000000000000000000803F0000000010D83CC288162940000000400200000000C000000040A4EEE8D83CC2E02B24409A7557BA933B3CC2FE2329409A75573A72E7E03D061E8F3E02009675080419000000FFFF010010F51400C44812000000020010F51400C4481200
1004
FFFFFFFFFFFFFFFF9675000000000000000000000000803F4DF9E4BE26F964BF00000000973B3DC2C4322C4000000000020072E7E03D061E8F3EA4EE74453EC20F09294089F27F4038D73CC22AAB2F40BB068040469DE23E9C1A503F020096759407190000000100FFFF20F61400A438120000000200A438
1004
120020F6140001000000FFFFFFFF9675000000000000000000000000803F98058DBE141976BF000000004DF83FC2096B3740000080400200469DE23E9C1A503FA4EE74453EC23D902F409A7557BAC4433EC22AAB2F40BB068040000000C000000040020096756C13190000000100FFFF20F6140030F71400
1004
0000020030F7140020F61400FFFFFFFFFFFFFFFF967500000000803F0000000000000000000000000000803F000000009C443EC2B49D2F40000000400200000000C000000040A4EE74453EC20F0929409A7557BA38D73CC22AAB2F409A75573A469DE23E9C1A503F020096751C1419000000FFFF010020F6
1004
1400C44812000000020020F61400C4481200FFFFFFFFFFFFFFFF9675000000000000000000000000803F98058DBE141976BF000000004DF83FC20A6B3740000000000200469DE23E9C1A503FA4EE19E13EC23D902F4089F27F40C4433EC257883440BB068040871A22BE989D3E3C02009675CC1419000000
1004
0100FFFF30F71400A438120000000200A438120030F7140001000000FFFFFFFF9675000000000000000000000000803FC9F8E4BE48F964BF00000000454F3EC2F9F22F40000080400200871A22BE989D3E3CA4EE19E13EC26A6D34409A7557BA6BDF3EC257883440BB068040000000C00000004002009675
1004
7C15190000000100FFFF30F7140040F814000000020040F8140030F71400FFFFFFFFFFFFFFFF967500000000803F0000000000000000000000000000803F0000000042E03EC2DE7A3440000000400200000000C000000040A4EE19E13EC23D902F409A7557BAC4433EC2578834409A75573AC61622BE33B6
1004
3E3C020096752C1619000000FFFF010030F71400C44812000000020030F71400C4481200FFFFFFFFFFFFFFFF9675000000000000000000000000803FC9F8E4BE48F964BF00000000444F3EC2FAF22F40000000000200C61622BE33B63E3CA4EEFFB13FC26A6D344089F27F406BDF3EC2F4213640BB068040
1004
37BB593F4C2C873F02009675DC16190000000100FFFF40F81400A438120000000200A438120040F8140001000000FFFFFFFF9675000000000000000000000000803F251FF9BD56197EBF000000009B1143C281B33C4000008040020037BB593F4C2C873FA4EEFFB13FC2050736409A7557BA50B03FC2F421
1004
3640BB068040000000C000000040020096758C17190000000100FFFF40F8140050F914000000020050F9140040F81400FFFFFFFFFFFFFFFF967500000000803F0000000000000000000000000000803F0000000027B13FC27B143640000000400200000000C000000040A4EEFFB13FC26A6D34409A7557BA
1004
6BDF3EC2F42136409A75573A37BB593F4C2C873F020096753C1819000000FFFF010040F81400C44812000000020040F81400C4481200FFFFFFFFFFFFFFFF9675000000000000000000000000803F251FF9BD56197EBF000000009B1143C282B33C4000000000020037BB593F4C2C873FA4EE456840C20507
1004
364089F27F4050B03FC285653940BB06804020E3833EA4B1E23E02009675EC18190000000100FFFF50F91400A438120000000200A438120050F9140001000000FFFFFFFF9675000000000000000000000000803F21058DBE251976BF00000000FF6441C279E23D4000008040020020E3833EA4B1E23EA4EE
1004
456840C2964A39409A7557BA966640C285653940BB068040000000C000000040020096759C19190000000100FFFF50F91400A0FE140000000200A0FE140050F9140001000000FFFFFFFF967500000000803F0000000000000000000000000000803F000000006D6740C20F583940000000400200000000C0
1004
00000040A4EE456840C2050736409A7557BA50B03FC2856539409A75573A3EE3833EA4B1E23E020096754C1A19000000FFFF010050F91400C44812000000020050F91400C4481200FFFFFFFFFFFFFFFF9675000000000000000000000000803F21058DBE251976BF00000000FF6441C27AE23D4000000000
1004
02003EE3833EA4B1E23EA4EE030842C293F43A4089F27F40753641C27E0F3B40BB0680408AC4703F425E923F02009675FC1A190000000100FFFF60FA1400A438120000000200A438120060FA140001000000FFFFFFFF9675000000000000000000000000803F2EBD3B33000080BF000000003DCA45C20B02
1004
3B400000804002008AC4703F425E923FA4EE030842C293F43A409A7557BA540642C27E0F3B40BB068040000000C00000004002009675AC1B190000000100FFFF60FA140070FB14000000020070FB140060FA1400FFFFFFFFFFFFFFFF967500000000803F0000000000000000000000000000803F00000000
1004
2B0742C20C023B40000000400200000000C000000040A4EE233841C293F43A409A7557BA753641C27E0F3B40BB068040000000C000000040020096755C1C19000000FFFF010060FA1400A0FE14000000020060FA1400A0FE1400FFFFFFFF01000000967500000000803F0000000000000000000000000000
1004
803F000000004C3741C20C023B40000000400200000000C000000040A4EE030842C293F43A409A7557BA753641C27E0F3B409A75573A8AC4703F0B5E923F020096750C1D19000000FFFF010060FA1400C44812000000020060FA1400C4481200FFFFFFFFFFFFFFFF9675000000000000000000000000803F
1004
2EBD3B33000080BF000000003DCA45C20C023B400000000002008AC4703F0B5E923FA4EEE1D742C293F43A4089F27F40540642C21EA93C40BB0680403596E73E7327283F02009675BC1D190000000100FFFF70FB1400A438120000000200A438120070FB140001000000FFFFFFFF96750000000000000000
1004
00000000803F8F55FABD92147EBF00000000BEA244C2812540400000804002003596E73E7327283FA4EEE1D742C2318E3C409A7557BA33D642C21EA93C40BB068040000000C000000040020096756C1E190000000100FFFF70FB140090FD14000000020090FD140070FB140001000000FFFFFFFF96750000
1004
0000803F0000000000000000000000000000803F000000000AD742C2A79B3C40000000400200000000C000000040A4EEE1D742C293F43A409A7557BA540642C21EA93C409A75573A1297E73E7327283F020096751C1F19000000FFFF010070FB1400C44812000000020070FB1400C4481200FFFFFFFFFFFF
1004
FFFF9675000000000000000000000000803F8F55FABD92147EBF00000000BEA244C2822540400000000002001297E73E7327283FA4EE075E4AC23C2E50C089F27F40575C4AC21EA93C40BB068040375EC6C0FD8A903402009675CC1F19000000FFFF010080FC1400A43812000000020080FC1400A4381200
1004
01000000010000009675000000000000000000000000803F000080BF00000000000000002F5D4AC2C42050C0000080400200375EC6C0FD8A9034A4EE075E4AC2318E3C409A7557BA575C4AC21EA93C40BB068040000000C000000040020096757C2019000000FFFF010080FC140090FD14000000020080FC
1004
140090FD14000100000001000000967500000000803F0000000000000000000000000000803F000000002F5D4AC2A79B3C40000000400200000000C000000040A4EE075E4AC23C2E50C09A7557BA575C4AC24D1350C0BB068040000000C000000040020096752C21190000000100FFFF80FC14001C371200
1004
000002001C37120080FC14000100000001000000967500000000803F0000000000000000000000000000803F000000002F5D4AC2C42050C0000000400200000000C000000040A4EE075E4AC23C2E50C09A7557BA575C4AC21EA93C409A75573A365EC6C00000008002009675DC21190000000100FFFF80FC
1004
1400C448120000000200C448120080FC1400FFFFFFFF010000009675000000000000000000000000803F000080BF00000000000000002F5D4AC2C42050C0000000000200365EC6C000000080A4EE075E4AC2318E3C4089F27F4033D642C21EA93C40BB068040AFC4F0BF00000080020096758C2219000000
1004
FFFF010090FD1400A43812000000020090FD1400A438120001000000010000009675000000000000000000000000803F2EBD3B330000803F000000802F5D4AC2A89B3C40000080400200AFC4F0BF00000080A4EE075E4AC2318E3C409A7557BA33D642C21EA93C409A75573ABCC4F0BF0000008002009675
1004
3C23190000000100FFFF90FD1400C448120000000200C448120090FD1400FFFFFFFF010000009675000000000000000000000000803F2EBD3B330000803F000000802F5D4AC2A79B3C40000000000200BCC4F0BF00000080A4EE233841C2964A394089F27F40966640C27E0F3B40BB0680403D5B72BF2BF8
1004
3DBF02009675EC2319000000FFFF0100A0FE1400A438120000000200A0FE1400A438120001000000010000009675000000000000000000000000803FFE16023EFEEC7D3F00000080022944C29A0A41400000804002003D5B72BF2BF83DBFA4EE233841C2964A39409A7557BA966640C27E0F3B409A75573A
1004
3D5B72BF13F83DBF020096759C24190000000100FFFFA0FE1400C448120000000200C4481200A0FE1400FFFFFFFF010000009675000000000000000000000000803FFE16023EFEEC7D3F00000080022944C2990A41400000000002003D5B72BF13F83DBFA4EE95A03BC21E611A4089F27F40DA1C3BC29E69
1004
1F40BB068040213B71BEA348B2BD020096754C2519000000FFFF0100CCC61200A438120000000200CCC61200A438120001000000010000009675000000000000000000000000803F6DB9043F2EE85A3F00000080F8EB3BC2983F2240000080400200213B71BEA348B2BDA4EE8A1E3BC21E611A409A7557BA
1004
DA1C3BC2107C1A40BB068040000000C00000004002009675FC2519000000FFFF0100CCC61200DCC7120000000200CCC61200DCC712000100000001000000967500000000803F0000000000000000000000000000803F00000000B21D3BC2976E1A40000000400200000000C000000040A4EE95A03BC21E61
1004
1A409A7557BADA1C3BC29E691F409A75573A213B71BEA348B2BD02009675AC26190000000100FFFFCCC61200C448120000000200C4481200CCC61200FFFFFFFF010000009675000000000000000000000000803F6DB9043F2EE85A3F00000080F8EB3BC2963F2240000000000200213B71BEA348B2BDA4EE
1004
8A1E3BC259EA134089F27F4035813AC2107C1A40BB06804024474FBEB320A3BC020096755C2719000000FFFF0100DCC71200A438120000000200DCC71200A438120001000000010000009675000000000000000000000000803FCEAD0D3F8238553F00000080AA2E3BC2FD221B4000008040020024474FBE
1004
B320A3BCA4EEE3823AC259EA13409A7557BA35813AC248051440BB068040000000C000000040020096750C2819000000FFFF0100DCC71200ECC8120000000200DCC71200ECC812000100000001000000967500000000803F0000000000000000000000000000803F000000000C823AC2CFF7134000000040
1004
0200000000C000000040A4EE8A1E3BC259EA13409A7557BA35813AC2107C1A409A75573A24474FBEB320A3BC02009675BC28190000000100FFFFDCC71200C448120000000200C4481200DCC71200FFFFFFFF010000009675000000000000000000000000803FCEAD0D3F8238553F00000080AA2E3BC2FD22
1004
1B4000000000020024474FBEB320A3BCA4EEE3823AC228630D4089F27F4029FF39C248051440BB068040060B0B3D5379493E020096756C2919000000FFFF0100ECC81200A438120000000200ECC81200A438120001000000010000009675000000000000000000000000803F614E203F2C98473F00000080
1004
F1E439C2F0140C40000080400200060B0B3D5379493EA4EEE3823AC228630D409A7557BA29FF39C2480514409A75573A060B0B3D5379493E020096751C2A190000000100FFFFECC81200C448120000000200C4481200ECC81200FFFFFFFF010000009675000000000000000000000000803F614E203F2C98
1004
473F00000080F1E439C2F0140C40000000000200060B0B3D5379493EA4EE591639C28C7AE33F89F27F40CB4438C226800040BB068040F85A6A3EF7EB083F02009675CC2A19000000FFFF0100FCC91200A438120000000200FCC91200A438120001000000010000009675000000000000000000000000803F
1004
50913F3F2DD1293F0000008032AA37C273AACD3F000080400200F85A6A3EF7EB083FA4EE794638C28C7AE33F9A7557BACB4438C26FB0E33FBB068040000000C000000040020096757C2B19000000FFFF0100FCC912000CCB120000000200FCC912000CCB12000100000001000000967500000000803F0000
1004
000000000000000000000000803F00000000A34538C28295E33F000000400200000000C000000040A4EE591639C28C7AE33F9A7557BACB4438C2268000409A75573AF85A6A3EF7EB083F020096752C2C190000000100FFFFFCC91200C448120000000200C4481200FCC91200FFFFFFFF0100000096750000
1004
00000000000000000000803F50913F3F2DD1293F0000008032AA37C274AACD3F000000000200F85A6A3EF7EB083FA4EE794638C27C4BC63F89F27F40848E37C26FB0E33FBB068040A75A9A3E503A173F02009675DC2C19000000FFFF01000CCB1200A4381200000002000CCB1200A4381200010000000100
1004
00009675000000000000000000000000803F8AC9493F78891D3F0000008064D136C2D8FBA73F000080400200A75A9A3E503A173FA4EE349037C27C4BC63F9A7557BA848E37C25181C63FBB068040000000C000000040020096758C2D19000000FFFF01000CCB120054BD1200000002000CCB120054BD1200
1004
0100000001000000967500000000803F0000000000000000000000000000803F000000005C8F37C26066C63F000000400200000000C000000040A4EE794638C27C4BC63F9A7557BA848E37C26FB0E33F9A75573AA75A9A3E503A173F020096753C2E190000000100FFFF0CCB1200C448120000000200C448
1004
12000CCB1200FFFFFFFF010000009675000000000000000000000000803F8AC9493F78891D3F0000008064D136C2D7FBA73F000000000200A75A9A3E503A173FA4EE349037C2A0A7A53F89F27F40D9F136C25181C63FBB068040A95A0D3F3879593F02009675EC2E19000000FFFF010054BD1200A4381200
1004
0000020054BD1200A438120001000000010000009675000000000000000000000000803FAA845B3FFBB5033F00000080CCCF35C2A750523F000080400200A95A0D3F3879593FA4EE87F336C2A0A7A53F9A7557BAD9F136C27FDDA53FBB068040000000C000000040020096759C2F19000000FFFF010054BD
1004
120064BE12000000020054BD120064BE12000100000001000000967500000000803F0000000000000000000000000000803F00000000B1F236C28DC2A53F000000400200000000C000000040A4EE349037C2A0A7A53F9A7557BAD9F136C25181C63F9A75573AA95A0D3F3879593F020096754C3019000000
1004
0100FFFF54BD1200C448120000000200C448120054BD1200FFFFFFFF010000009675000000000000000000000000803FAA845B3FFBB5033F00000080CCCF35C2A450523F000000000200A95A0D3F3879593FA4EE87F336C25EF1813F89F27F40CD6F36C27FDDA53FBB06804061D4413F7428883F02009675
1004
FC3019000000FFFF010064BE1200A43812000000020064BE1200A438120001000000010000009675000000000000000000000000803F33FF683F131ED43E000000806C2F35C2A459A73E00008040020061D4413F7428883FA4EE7C7136C25EF1813F9A7557BACD6F36C23A27823FBB068040000000C00000
1004
004002009675AC3119000000FFFF010064BE120074BF12000000020064BE120074BF12000100000001000000967500000000803F0000000000000000000000000000803F00000000A47036C24B0C823F000000400200000000C000000040A4EE87F336C25EF1813F9A7557BACD6F36C27FDDA53F9A75573A
1004
61D4413F7428883F020096755C32190000000100FFFF64BE1200C448120000000200C448120064BE1200FFFFFFFF010000009675000000000000000000000000803F33FF683F131ED43E000000806C2F35C29F59A73E00000000020061D4413F7428883FA4EE7C7136C242CE353F89F27F405F0836C23A27
1004
823FBB06804039ED6B3F02169F3F020096750C3319000000FFFF010074BF1200A43812000000020074BF1200A438120001000000010000009675000000000000000000000000803F7B05733F64F4A03E000000808CE034C2EECE27BE00008040020039ED6B3F02169F3FA4EE0F0A36C242CE353F9A7557BA
1004
5F0836C2F539363FBB068040000000C00000004002009675BC3319000000FFFF010074BF120084C012000000020074BF120084C012000100000001000000967500000000803F0000000000000000000000000000803F00000000370936C21204363F000000400200000000C000000040A4EE7C7136C242CE
1004
353F9A7557BA5F0836C23A27823F9A75573A39ED6B3F02169F3F020096756C34190000000100FFFF74BF1200C448120000000200C448120074BF1200FFFFFFFF010000009675000000000000000000000000803F7B05733F64F4A03E000000808CE034C2EBCE27BE00000000020039ED6B3F02169F3FA4EE
1004
0F0A36C27E73CF3E89F27F408CBA35C2F539363FBB06804095767E3F6A77A73F020096751C3519000000FFFF010084C01200A43812000000020084C01200A438120001000000010000009675000000000000000000000000803F7E67783F3097773E0000008049C534C23BFA0EBF00008040020095767E3F
1004
6A77A73FA4EE3CBC35C27E73CF3E9A7557BA8CBA35C2EE4AD03EBB068040000000C00000004002009675CC3519000000FFFF010084C0120094C112000000020084C0120094C112000100000001000000967500000000803F0000000000000000000000000000803F0000000064BB35C243DFCF3E00000040
1004
0200000000C000000040A4EE0F0A36C27E73CF3E9A7557BA8CBA35C2F539363F9A75573A95767E3F6A77A73F020096757C36190000000100FFFF84C01200C448120000000200C448120084C01200FFFFFFFF010000009675000000000000000000000000803F7E67783F3097773E0000008049C534C23CFA
1004
0EBF00000000020095767E3F6A77A73FA4EE3CBC35C24C2ACD3D89F27F40EE9F35C2EE4AD03EBB068040CE12A63FD93ACD3F020096752C3719000000FFFF010094C11200A43812000000020094C11200A438120001000000010000009675000000000000000000000000803F3A137F3FA1EEAD3D00000080
1004
F32F35C25F8598BF000080400200CE12A63FD93ACD3FA4EE9DA135C24C2ACD3D9A7557BAEE9F35C2E887D03DBB068040000000C00000004002009675DC3719000000FFFF010094C11200A4C212000000020094C11200A4C212000100000001000000967500000000803F0000000000000000000000000000
1004
803F00000000C5A035C2F6D8CE3D000000400200000000C000000040A4EE3CBC35C24C2ACD3D9A7557BAEE9F35C2EE4AD03E9A75573ACE12A63FF539CD3F020096758C38190000000100FFFF94C11200C448120000000200C448120094C11200FFFFFFFF010000009675000000000000000000000000803F
1004
3A137F3FA1EEAD3D00000080F32F35C25F8598BF000000000200CE12A63FF539CD3FA4EE9DA135C253506ABE89F27F40548635C2E887D03DBB068040B599923F98E3BC3F020096753C3919000000FFFF0100A4C21200A438120000000200A4C21200A4381200010000000100000096750000000000000000
1004
00000000803F96437F3F572F9B3D000000804D2E35C23E5DAFBF000080400200B599923F98E3BC3FA4EE038835C253506ABE9A7557BA548635C24FA168BEBB068040000000C00000004002009675EC3919000000FFFF0100A4C2120074C4120000000200A4C2120074C41200010000000100000096750000
1004
0000803F0000000000000000000000000000803F000000002B8735C2C87869BE000000400200000000C000000040A4EE9DA135C253506ABE9A7557BA548635C2E887D03D9A75573AB599923F98E3BC3F020096759C3A190000000100FFFFA4C21200C448120000000200C4481200A4C21200FFFFFFFF0100
1004
00009675000000000000000000000000803F96437F3F572F9B3D000000804D2E35C23E5DAFBF000000000200B599923F98E3BC3FA4EE9DA135C27A500FBF89F27F40548635C24FA168BEBB0680404D9AAF3F3318DA3F020096754C3B19000000FFFF010074C41200A43812000000020074C41200A4381200
1004
01000000010000009675000000000000000000000000803FD9457F3FA6409ABD00000000950A36C203A9F6BF0000804002004D9AAF3F3318DA3FA4EE9DA135C27A500FBF9A7557BAEE9F35C2BDE40EBFBB068040000000C00000004002009675FC3B19000000FFFF010074C4120084C512000000020074C4
1004
120084C512000100000001000000967500000000803F0000000000000000000000000000803F00000000C5A035C2A51A0FBF000000400200000000C000000040A4EE9DA135C27A500FBF9A7557BA548635C24FA168BE9A75573A4D9AAF3F3318DA3F02009675AC3C190000000100FFFF74C41200C4481200
1004
00000200C448120074C41200FFFFFFFF010000009675000000000000000000000000803FD9457F3FA6409ABD00000000950A36C203A9F6BF0000000002004D9AAF3F3318DA3FA4EED6D535C265CB63BF89F27F40EE9F35C2BDE40EBFBB068040B941B23F3901DD3F020096755C3D19000000FFFF010084C5
1004
1200A43812000000020084C51200A438120001000000010000009675000000000000000000000000803F27FF7C3F9C641CBE00000000CBAE36C2F7FA10C0000080400200B941B23F3901DD3FA4EED6D535C265CB63BF9A7557BA26D435C2A45F63BFBB068040000000C00000004002009675303E19000000
1004
FFFF010084C51200E02A12000000020084C51200E02A12000100000001000000967500000000803F0000000000000000000000000000803F00000000FED435C27E9563BF000000400200000000C000000040A4EED6D535C265CB63BF9A7557BAEE9F35C2BDE40EBF9A75573AB941B23F3901DD3F02009675
1004
043F190000000100FFFF84C51200C448120000000200C448120084C51200FFFFFFFF010000009675000000000000000000000000803F27FF7C3F9C641CBE00000000CBAE36C2F7FA10C0000000000200B941B23F3901DD3FA4EEA92336C2EDEF98BF89F27F4026D435C2A45F63BFBB0680401AF1B93FB52C
1004
E23F02009675D83F19000000FFFF0100E02A1200A438120000000200E02A1200A438120001000000010000009675000000000000000000000000803F7E67783F309777BE000000007B8A37C2CAA026C00000804002001AF1B93FB52CE23FA4EEA92336C2EDEF98BF9A7557BAFA2136C20FBA98BFBB068040
1004
000000C00000004002009675AC4019000000FFFF0100E02A12005C2C120000000200E02A12005C2C12000100000001000000967500000000803F0000000000000000000000000000803F00000000D12236C2FDD498BF000000400200000000C000000040A4EEA92336C2EDEF98BF9A7557BA26D435C2A45F
1004
63BF9A75573A1AF1B93FB52CE23F020096758041190000000100FFFFE02A1200C448120000000200C4481200E02A1200FFFFFFFF010000009675000000000000000000000000803F7E67783F309777BE000000007B8A37C2CAA026C00000000002001AF1B93FB52CE23FA4EEB4A536C232A6BCBF89F27F40
1004
FA2136C20FBA98BFBB06804039BAD63F22F6FD3F02009675544219000000FFFF01005C2C1200A4381200000002005C2C1200A438120001000000010000009675000000000000000000000000803F35FF683F0C1ED4BE00000000886C39C29DFC3FC000008040020039BAD63F22F6FD3FA4EEB4A536C232A6
1004
BCBF9A7557BA06A436C25470BCBFBB068040000000C00000004002009675284319000000FFFF01005C2C1200DC2D1200000002005C2C1200DC2D12000100000001000000967500000000803F0000000000000000000000000000803F00000000DEA436C2438BBCBF000000400200000000C000000040A4EE
1004
B4A536C232A6BCBF9A7557BAFA2136C20FBA98BF9A75573A39BAD63F22F6FD3F02009675FC43190000000100FFFF5C2C1200C448120000000200C44812005C2C1200FFFFFFFF010000009675000000000000000000000000803F35FF683F0C1ED4BE00000000886C39C29FFC3FC000000000020039BAD63F
1004
22F6FD3FA4EE614237C23C7DE0BF89F27F4006A436C25470BCBFBB068040555FD23F2D35FB3F02009675D04419000000FFFF0100DC2D1200A438120000000200DC2D1200A438120001000000010000009675000000000000000000000000803F34A6603F6A82F5BE0000000085683AC2767E4CC000008040
1004
0200555FD23F2D35FB3FA4EE614237C23C7DE0BF9A7557BAB14037C25E47E0BFBB068040000000C00000004002009675A44519000000FFFF0100DC2D12005C2F120000000200DC2D12005C2F12000100000001000000967500000000803F0000000000000000000000000000803F00000000894137C24D62
1004
E0BF000000400200000000C000000040A4EE614237C23C7DE0BF9A7557BA06A436C25470BCBF9A75573A555FD23F2D35FB3F020096757846190000000100FFFFDC2D1200C448120000000200C4481200DC2D1200FFFFFFFF010000009675000000000000000000000000803F34A6603F6A82F5BE00000000
1004
85683AC2757E4CC0000000000200555FD23F2D35FB3FA4EE07DE37C2278000C089F27F40B14037C25E47E0BFBB068040DA6CC93FA44FEF3F020096754C4719000000FFFF01005C2F1200A4381200000002005C2F1200A438120001000000010000009675000000000000000000000000803FA4AB5B3FEF74
1004
03BF00000000A4183BC23CDE56C0000080400200DA6CC93FA44FEF3FA4EE07DE37C2278000C09A7557BA58DC37C2386500C0BB068040000000C00000004002009675204819000000FFFF01005C2F1200DC301200000002005C2F1200DC3012000100000001000000967500000000803F0000000000000000
1004
000000000000803F000000002FDD37C2B07200C0000000400200000000C000000040A4EE07DE37C2278000C09A7557BAB14037C25E47E0BF9A75573ADA6CC93FA44FEF3F02009675F448190000000100FFFF5C2F1200C448120000000200C44812005C2F1200FFFFFFFF0100000096750000000000000000
1004
00000000803FA4AB5B3FEF7403BF00000000A4183BC23DDE56C0000000000200DA6CC93FA44FEF3FA4EEE5AD38C217280FC089F27F4058DC37C2386500C0BB068040EBCCD83F9BF9FF3F02009675C84919000000FFFF0100DC301200A438120000000200DC301200A4381200010000000100000096750000
1004
00000000000000000000803F55913F3F27D129BF00000000992B3DC2193960C0000080400200EBCCD83F9BF9FF3FA4EEE5AD38C217280FC09A7557BA37AC38C2280D0FC0BB068040000000C000000040020096759C4A19000000FFFF0100DC301200EC31120000000200DC301200EC311200010000000100
1004
0000967500000000803F0000000000000000000000000000803F000000000EAD38C29F1A0FC0000000400200000000C000000040A4EEE5AD38C217280FC09A7557BA58DC37C2386500C09A75573AEBCCD83F5FFAFF3F02009675704B190000000100FFFFDC301200C448120000000200C4481200DC301200
1004
FFFFFFFF010000009675000000000000000000000000803F55913F3F27D129BF00000000992B3DC2153960C0000000000200EBCCD83F5FFAFF3FA4EECC7E39C20A261CC089F27F4037AC38C2280D0FC0BB06804074A4D13F3678F63F02009675444C19000000FFFF0100EC311200A438120000000200EC31
1004
1200A438120001000000010000009675000000000000000000000000803FA892343FF67635BF00000000C1223EC2F60766C000008040020074A4D13F3678F63FA4EECC7E39C20A261CC09A7557BA37AC38C2280D0FC09A75573A74A4D13F3678F63F02009675184D190000000100FFFFEC311200C4481200
1004
00000200C4481200EC311200FFFFFFFF010000009675000000000000000000000000803FA892343FF67635BF00000000C1223EC2F60766C000000000020074A4D13F3678F63FA4EE220D3DC2B1EC3FC089F27F4065893CC22E8E3CC0BB068040FC02C33F8386D43F02009675EC4D19000000FFFF0100FC32
1004
1200A438120000000200FC321200A438120001000000010000009675000000000000000000000000803F05CBBE3EC48F6DBF00000000FFB342C2D43464C0000080400200FC02C33F8386D43FA4EE220D3DC2B1EC3FC09A7557BA65893CC22E8E3CC09A75573A2E02C33F1E87D43F02009675C04E19000000
1004
0100FFFFFC321200C448120000000200C4481200FC321200FFFFFFFF010000009675000000000000000000000000803F05CBBE3EC48F6DBF0000000000B442C2D43464C00000000002002E02C33F1E87D43FA4EE2B643FC20D514BC089F27F40D1C53EC2228C49C0BB068040DD02A43FC0E1B73F02009675
1004
944F19000000FFFF01008C341200A4381200000002008C341200A438120001000000010000009675000000000000000000000000803FD68D2B3EBE617CBF00000000EB7044C2CC0059C0000080400200DD02A43FC0E1B73FA4EE2B643FC20D514BC09A7557BAD1C53EC2228C49C09A75573ADD02A43FC0E1
1004
B73F020096756850190000000100FFFF8C341200C448120000000200C44812008C341200FFFFFFFF010000009675000000000000000000000000803FD68D2B3EBE617CBF00000000EB7044C2CB0059C0000000000200DD02A43FC0E1B73FA4EE233841C23C2E50C089F27F40C99940C2B3794EC0BB068040
1004
BC87863F22639A3F020096753C5119000000FFFF01000C361200A4381200000002000C361200A438120001000000010000009675000000000000000000000000803F8D21253E41A67CBF00000000745D45C2A9F95AC0000080400200BC87863F22639A3FA4EE233841C23C2E50C09A7557BA753641C24D13
1004
50C0BB068040000000C00000004002009675105219000000FFFF01000C3612001C371200000002000C3612001C3712000100000001000000967500000000803F0000000000000000000000000000803F000000004C3741C2C42050C0000000400200000000C000000040A4EE233841C23C2E50C09A7557BA
1004
C99940C2B3794EC09A75573ACA87863F22639A3F02009675E452190000000100FFFF0C361200C448120000000200C44812000C361200FFFFFFFF010000009675000000000000000000000000803F8D21253E41A67CBF00000000745D45C2A9F95AC0000000000200CA87863F22639A3FA4EE075E4AC23C2E
1005
525
  0
INSERT
  8
AME_FRZ
  5
525
  2
AME_NIL
 10
1.0
 20
1.0
 30
1.0
1001
AME_SOL
1004
50C089F27F40753641C24D1350C0BB068040365E92BF295E923F02009675B85319000000FFFF01001C371200A4381200000002001C371200A438120001000000010000009675000000000000000000000000803F2EBD3B33000080BF000000003DCA45C2C62050C0000080400200365E92BF295E923FA4EE
1004
075E4AC23C2E50C09A7557BA753641C24D1350C09A75573A365E92BF295E923F020096758C54190000000100FFFF1C371200C448120000000200C44812001C371200FFFFFFFF010000009675000000000000000000000000803F2EBD3B33000080BF000000003DCA45C2C42050C0000000000200365E92BF
1004
295E923F19FC
1005
526
  0
INSERT
  8
AME_FRZ
  5
526
  2
AME_NIL
 10
1.0
 20
1.0
 30
1.0
1001
AME_SOL
1004

1005
0
  0
INSERT
  8
AME_FRZ
  5
941
  2
*U5
 10
0.0
 20
0.0
 30
0.0
  0
INSERT
  8
AME_FRZ
  5
944
  2
AME_MAT
 10
0.0
 20
0.0
 30
0.0
1001
AME_SOL
1000
MILD_STEEL
1040
7860.0
1040
220.0
1040
0.275
1040
600.0
1040
760.0
1040
56.0
1040
12.0
1040
0.46
  0
ENDSEC
  0
EOF
